  0
SECTION
  2
HEADER
  9
$ACADVER
  1
AC1015
  9
$ACADMAINTVER
 70
     6
  9
$DWGCODEPAGE
  3
ANSI_932
  9
$INSBASE
 10
0.0
 20
0.0
 30
0.0
  9
$EXTMIN
 10
1.000000000000000E+20
 20
1.000000000000000E+20
 30
1.000000000000000E+20
  9
$EXTMAX
 10
-1.000000000000000E+20
 20
-1.000000000000000E+20
 30
-1.000000000000000E+20
  9
$LIMMIN
 10
0.0
 20
0.0
  9
$LIMMAX
 10
12.0
 20
9.0
  9
$ORTHOMODE
 70
     0
  9
$REGENMODE
 70
     1
  9
$FILLMODE
 70
     1
  9
$QTEXTMODE
 70
     0
  9
$MIRRTEXT
 70
     1
  9
$LTSCALE
 40
1.0
  9
$ATTMODE
 70
     1
  9
$TEXTSIZE
 40
0.2
  9
$TRACEWID
 40
0.05
  9
$TEXTSTYLE
  7
Standard
  9
$CLAYER
  8
0
  9
$CELTYPE
  6
ByLayer
  9
$CECOLOR
 62
   256
  9
$CELTSCALE
 40
1.0
  9
$DISPSILH
 70
     0
  9
$DIMSCALE
 40
1.0
  9
$DIMASZ
 40
0.18
  9
$DIMEXO
 40
0.0625
  9
$DIMDLI
 40
0.38
  9
$DIMRND
 40
0.0
  9
$DIMDLE
 40
0.0
  9
$DIMEXE
 40
0.18
  9
$DIMTP
 40
0.0
  9
$DIMTM
 40
0.0
  9
$DIMTXT
 40
0.18
  9
$DIMCEN
 40
0.09
  9
$DIMTSZ
 40
0.0
  9
$DIMTOL
 70
     0
  9
$DIMLIM
 70
     0
  9
$DIMTIH
 70
     1
  9
$DIMTOH
 70
     1
  9
$DIMSE1
 70
     0
  9
$DIMSE2
 70
     0
  9
$DIMTAD
 70
     0
  9
$DIMZIN
 70
     0
  9
$DIMBLK
  1

  9
$DIMASO
 70
     1
  9
$DIMSHO
 70
     1
  9
$DIMPOST
  1

  9
$DIMAPOST
  1

  9
$DIMALT
 70
     0
  9
$DIMALTD
 70
     2
  9
$DIMALTF
 40
25.4
  9
$DIMLFAC
 40
1.0
  9
$DIMTOFL
 70
     0
  9
$DIMTVP
 40
0.0
  9
$DIMTIX
 70
     0
  9
$DIMSOXD
 70
     0
  9
$DIMSAH
 70
     0
  9
$DIMBLK1
  1

  9
$DIMBLK2
  1

  9
$DIMSTYLE
  2
Standard
  9
$DIMCLRD
 70
     0
  9
$DIMCLRE
 70
     0
  9
$DIMCLRT
 70
     0
  9
$DIMTFAC
 40
1.0
  9
$DIMGAP
 40
0.09
  9
$DIMJUST
 70
     0
  9
$DIMSD1
 70
     0
  9
$DIMSD2
 70
     0
  9
$DIMTOLJ
 70
     1
  9
$DIMTZIN
 70
     0
  9
$DIMALTZ
 70
     0
  9
$DIMALTTZ
 70
     0
  9
$DIMUPT
 70
     0
  9
$DIMDEC
 70
     4
  9
$DIMTDEC
 70
     4
  9
$DIMALTU
 70
     2
  9
$DIMALTTD
 70
     2
  9
$DIMTXSTY
  7
Standard
  9
$DIMAUNIT
 70
     0
  9
$DIMADEC
 70
     0
  9
$DIMALTRND
 40
0.0
  9
$DIMAZIN
 70
     0
  9
$DIMDSEP
 70
    46
  9
$DIMATFIT
 70
     3
  9
$DIMFRAC
 70
     0
  9
$DIMLDRBLK
  1

  9
$DIMLUNIT
 70
     2
  9
$DIMLWD
 70
    -2
  9
$DIMLWE
 70
    -2
  9
$DIMTMOVE
 70
     0
  9
$LUNITS
 70
     2
  9
$LUPREC
 70
     4
  9
$SKETCHINC
 40
0.1
  9
$FILLETRAD
 40
0.5
  9
$AUNITS
 70
     0
  9
$AUPREC
 70
     0
  9
$MENU
  1
.
  9
$ELEVATION
 40
0.0
  9
$PELEVATION
 40
0.0
  9
$THICKNESS
 40
0.0
  9
$LIMCHECK
 70
     0
  9
$CHAMFERA
 40
0.5
  9
$CHAMFERB
 40
0.5
  9
$CHAMFERC
 40
1.0
  9
$CHAMFERD
 40
0.0
  9
$SKPOLY
 70
     0
  9
$TDCREATE
 40
2458171.574415521
  9
$TDUCREATE
 40
2458171.199415521
  9
$TDUPDATE
 40
2458171.574415521
  9
$TDUUPDATE
 40
2458171.199415521
  9
$TDINDWG
 40
0.0000000116
  9
$TDUSRTIMER
 40
0.0000000116
  9
$USRTIMER
 70
     1
  9
$ANGBASE
 50
0.0
  9
$ANGDIR
 70
     0
  9
$PDMODE
 70
     0
  9
$PDSIZE
 40
0.0
  9
$PLINEWID
 40
0.0
  9
$SPLFRAME
 70
     0
  9
$SPLINETYPE
 70
     6
  9
$SPLINESEGS
 70
     8
  9
$HANDSEED
  5
333
  9
$SURFTAB1
 70
     6
  9
$SURFTAB2
 70
     6
  9
$SURFTYPE
 70
     6
  9
$SURFU
 70
     6
  9
$SURFV
 70
     6
  9
$UCSBASE
  2

  9
$UCSNAME
  2

  9
$UCSORG
 10
0.0
 20
0.0
 30
0.0
  9
$UCSXDIR
 10
1.0
 20
0.0
 30
0.0
  9
$UCSYDIR
 10
0.0
 20
1.0
 30
0.0
  9
$UCSORTHOREF
  2

  9
$UCSORTHOVIEW
 70
     0
  9
$UCSORGTOP
 10
0.0
 20
0.0
 30
0.0
  9
$UCSORGBOTTOM
 10
0.0
 20
0.0
 30
0.0
  9
$UCSORGLEFT
 10
0.0
 20
0.0
 30
0.0
  9
$UCSORGRIGHT
 10
0.0
 20
0.0
 30
0.0
  9
$UCSORGFRONT
 10
0.0
 20
0.0
 30
0.0
  9
$UCSORGBACK
 10
0.0
 20
0.0
 30
0.0
  9
$PUCSBASE
  2

  9
$PUCSNAME
  2

  9
$PUCSORG
 10
0.0
 20
0.0
 30
0.0
  9
$PUCSXDIR
 10
1.0
 20
0.0
 30
0.0
  9
$PUCSYDIR
 10
0.0
 20
1.0
 30
0.0
  9
$PUCSORTHOREF
  2

  9
$PUCSORTHOVIEW
 70
     0
  9
$PUCSORGTOP
 10
0.0
 20
0.0
 30
0.0
  9
$PUCSORGBOTTOM
 10
0.0
 20
0.0
 30
0.0
  9
$PUCSORGLEFT
 10
0.0
 20
0.0
 30
0.0
  9
$PUCSORGRIGHT
 10
0.0
 20
0.0
 30
0.0
  9
$PUCSORGFRONT
 10
0.0
 20
0.0
 30
0.0
  9
$PUCSORGBACK
 10
0.0
 20
0.0
 30
0.0
  9
$USERI1
 70
     0
  9
$USERI2
 70
     0
  9
$USERI3
 70
     0
  9
$USERI4
 70
     0
  9
$USERI5
 70
     0
  9
$USERR1
 40
0.0
  9
$USERR2
 40
0.0
  9
$USERR3
 40
0.0
  9
$USERR4
 40
0.0
  9
$USERR5
 40
0.0
  9
$WORLDVIEW
 70
     1
  9
$SHADEDGE
 70
     3
  9
$SHADEDIF
 70
    70
  9
$TILEMODE
 70
     1
  9
$MAXACTVP
 70
    64
  9
$PINSBASE
 10
0.0
 20
0.0
 30
0.0
  9
$PLIMCHECK
 70
     0
  9
$PEXTMIN
 10
1.000000000000000E+20
 20
1.000000000000000E+20
 30
1.000000000000000E+20
  9
$PEXTMAX
 10
-1.000000000000000E+20
 20
-1.000000000000000E+20
 30
-1.000000000000000E+20
  9
$PLIMMIN
 10
0.0
 20
0.0
  9
$PLIMMAX
 10
12.0
 20
9.0
  9
$UNITMODE
 70
     0
  9
$VISRETAIN
 70
     1
  9
$PLINEGEN
 70
     0
  9
$PSLTSCALE
 70
     1
  9
$TREEDEPTH
 70
  3020
  9
$CMLSTYLE
  2
Standard
  9
$CMLJUST
 70
     0
  9
$CMLSCALE
 40
1.0
  9
$PROXYGRAPHICS
 70
     1
  9
$MEASUREMENT
 70
     0
  9
$CELWEIGHT
370
    -1
  9
$ENDCAPS
280
     0
  9
$JOINSTYLE
280
     0
  9
$LWDISPLAY
290
     1
  9
$INSUNITS
 70
     1
  9
$HYPERLINKBASE
  1

  9
$STYLESHEET
  1

  9
$XEDIT
290
     1
  9
$CEPSNTYPE
380
     0
  9
$PSTYLEMODE
290
     1
  9
$FINGERPRINTGUID
  2
{A4E5A596-F571-4064-B888-F3A299E1C83E}
  9
$VERSIONGUID
  2
{FAEB1C32-E019-11D5-929B-00C0DF256EC4}
  9
$EXTNAMES
290
     1
  9
$PSVPSCALE
 40
0.0
  9
$OLESTARTUP
290
     0
  0
ENDSEC
  0
SECTION
  2
CLASSES
  0
CLASS
  1
ACDBDICTIONARYWDFLT
  2
AcDbDictionaryWithDefault
  3
ObjectDBX Classes
 90
        0
280
     0
281
     0
  0
CLASS
  1
VISUALSTYLE
  2
AcDbVisualStyle
  3
ObjectDBX Classes
 90
     4095
280
     0
281
     0
  0
CLASS
  1
MATERIAL
  2
AcDbMaterial
  3
ObjectDBX Classes
 90
     1153
280
     0
281
     0
  0
CLASS
  1
SUN
  2
AcDbSun
  3
SCENEOE
 90
     1024
280
     0
281
     0
  0
CLASS
  1
DICTIONARYVAR
  2
AcDbDictionaryVar
  3
ObjectDBX Classes
 90
        0
280
     0
281
     0
  0
CLASS
  1
ACDBPLACEHOLDER
  2
AcDbPlaceHolder
  3
ObjectDBX Classes
 90
        0
280
     0
281
     0
  0
CLASS
  1
LAYOUT
  2
AcDbLayout
  3
ObjectDBX Classes
 90
        0
280
     0
281
     0
  0
ENDSEC
  0
SECTION
  2
TABLES
  0
TABLE
  2
VPORT
  5
8
330
0
100
AcDbSymbolTable
 70
     1
  0
VPORT
  5
29
330
8
100
AcDbSymbolTableRecord
100
AcDbViewportTableRecord
  2
*Active
 70
     0
 10
0.0
 20
0.0
 11
1.0
 21
1.0
 12
0.0
 22
0.0
 13
0.0
 23
0.0
 14
0.5
 24
0.5
 15
0.5
 25
0.5
 16
0.0
 26
0.0
 36
1.0
 17
104.951388862651
 27
148.5194444073146
 37
0.0
 40
297.0388888146292
 41
0.7066508313539193
 42
50.0
 43
0.0
 44
0.0
 50
0.0
 51
0.0
 71
     0
 72
   100
 73
     1
 74
     3
 75
     0
 76
     0
 77
     0
 78
     0
281
     0
 65
     1
110
0.0
120
0.0
130
0.0
111
1.0
121
0.0
131
0.0
112
0.0
122
1.0
132
0.0
 79
     0
146
0.0
  0
ENDTAB
  0
TABLE
  2
LTYPE
  5
5
330
0
100
AcDbSymbolTable
 70
     1
  0
LTYPE
  5
14
330
5
100
AcDbSymbolTableRecord
100
AcDbLinetypeTableRecord
  2
ByBlock
 70
     0
  3

 72
    65
 73
     0
 40
0.0
  0
LTYPE
  5
15
330
5
100
AcDbSymbolTableRecord
100
AcDbLinetypeTableRecord
  2
ByLayer
 70
     0
  3

 72
    65
 73
     0
 40
0.0
  0
LTYPE
  5
16
330
5
100
AcDbSymbolTableRecord
100
AcDbLinetypeTableRecord
  2
Continuous
 70
     0
  3
Solid line
 72
    65
 73
     0
 40
0.0
  0
ENDTAB
  0
TABLE
  2
LAYER
  5
2
330
0
100
AcDbSymbolTable
 70
     2
  0
LAYER
  5
10
330
2
100
AcDbSymbolTableRecord
100
AcDbLayerTableRecord
  2
0
 70
     0
 62
     7
  6
Continuous
370
    -3
390
F
  0
LAYER
  5
40
330
2
100
AcDbSymbolTableRecord
100
AcDbLayerTableRecord
  2
_U+30EC_U+30A4_U+30E4_U+30FC 1
 70
     0
 62
     7
  6
Continuous
370
    -3
390
F
  0
ENDTAB
  0
TABLE
  2
STYLE
  5
3
330
0
100
AcDbSymbolTable
 70
     1
  0
STYLE
  5
11
330
3
100
AcDbSymbolTableRecord
100
AcDbTextStyleTableRecord
  2
Standard
 70
     0
 40
0.0
 41
1.0
 50
0.0
 71
     0
 42
0.2
  3
txt
  4

  0
ENDTAB
  0
TABLE
  2
VIEW
  5
6
330
0
100
AcDbSymbolTable
 70
     0
  0
ENDTAB
  0
TABLE
  2
UCS
  5
7
330
0
100
AcDbSymbolTable
 70
     0
  0
ENDTAB
  0
TABLE
  2
APPID
  5
9
330
0
100
AcDbSymbolTable
 70
     1
  0
APPID
  5
12
330
9
100
AcDbSymbolTableRecord
100
AcDbRegAppTableRecord
  2
ACAD
 70
     0
  0
ENDTAB
  0
TABLE
  2
DIMSTYLE
  5
A
330
0
100
AcDbSymbolTable
 70
     1
100
AcDbDimStyleTable
  0
DIMSTYLE
105
27
330
A
100
AcDbSymbolTableRecord
100
AcDbDimStyleTableRecord
  2
Standard
 70
     0
178
     0
340
11
  0
ENDTAB
  0
TABLE
  2
BLOCK_RECORD
  5
1
330
0
100
AcDbSymbolTable
 70
     1
  0
BLOCK_RECORD
  5
1F
330
1
100
AcDbSymbolTableRecord
100
AcDbBlockTableRecord
  2
*Model_Space
340
22
  0
BLOCK_RECORD
  5
1B
330
1
100
AcDbSymbolTableRecord
100
AcDbBlockTableRecord
  2
*Paper_Space
340
1E
  0
BLOCK_RECORD
  5
23
330
1
100
AcDbSymbolTableRecord
100
AcDbBlockTableRecord
  2
*Paper_Space0
340
26
  0
ENDTAB
  0
ENDSEC
  0
SECTION
  2
BLOCKS
  0
BLOCK
  5
20
330
1F
100
AcDbEntity
  8
0
100
AcDbBlockBegin
  2
*Model_Space
 70
     0
 10
0.0
 20
0.0
 30
0.0
  3
*Model_Space
  1

  0
ENDBLK
  5
21
330
1F
100
AcDbEntity
  8
0
100
AcDbBlockEnd
  0
BLOCK
  5
1C
330
1B
100
AcDbEntity
 67
     1
  8
0
100
AcDbBlockBegin
  2
*Paper_Space
 70
     0
 10
0.0
 20
0.0
 30
0.0
  3
*Paper_Space
  1

  0
ENDBLK
  5
1D
330
1B
100
AcDbEntity
 67
     1
  8
0
100
AcDbBlockEnd
  0
BLOCK
  5
24
330
23
100
AcDbEntity
  8
0
100
AcDbBlockBegin
  2
*Paper_Space0
 70
     0
 10
0.0
 20
0.0
 30
0.0
  3
*Paper_Space0
  1

  0
ENDBLK
  5
25
330
23
100
AcDbEntity
  8
0
100
AcDbBlockEnd
  0
ENDSEC
  0
SECTION
  2
ENTITIES
  0
POLYLINE
  5
41
330
1F
100
AcDbEntity
  8
_U+30EC_U+30A4_U+30E4_U+30FC 1
 62
     7
370
    25
100
AcDb2dPolyline
 66
     1
 10
0.0
 20
0.0
 30
0.0
  0
VERTEX
  5
42
330
41
100
AcDbEntity
  8
_U+30EC_U+30A4_U+30E4_U+30FC 1
 62
     7
370
    25
100
AcDbVertex
100
AcDb2dVertex
 10
122.3221631909907
 20
195.4817802788205
 30
0.0
  0
VERTEX
  5
43
330
41
100
AcDbEntity
  8
_U+30EC_U+30A4_U+30E4_U+30FC 1
 62
     7
370
    25
100
AcDbVertex
100
AcDb2dVertex
 10
122.3221631909907
 20
195.7781015542456
 30
0.0
  0
SEQEND
  5
44
330
41
100
AcDbEntity
  8
_U+30EC_U+30A4_U+30E4_U+30FC 1
 62
     7
370
    25
  0
SPLINE
  5
45
330
1F
100
AcDbEntity
  8
_U+30EC_U+30A4_U+30E4_U+30FC 1
 62
     7
370
    25
100
AcDbSpline
210
0.0
220
0.0
230
1.0
 70
     8
 71
     3
 72
    29
 73
    25
 74
     0
 42
0.0000000001
 43
0.0000000001
 12
1.0
 22
0.0
 32
0.0
 13
1.0
 23
0.0
 33
0.0
 40
0.0
 40
0.0
 40
0.0
 40
0.0
 40
1.0
 40
1.0
 40
1.0
 40
2.0
 40
2.0
 40
2.0
 40
3.0
 40
3.0
 40
3.0
 40
4.0
 40
4.0
 40
4.0
 40
5.0
 40
5.0
 40
5.0
 40
6.0
 40
6.0
 40
6.0
 40
7.0
 40
7.0
 40
7.0
 40
8.0
 40
8.0
 40
8.0
 40
8.0
 10
122.3221631909907
 20
195.7992888914799
 30
0.0
 10
122.3221631909907
 20
195.7992888914799
 30
0.0
 10
122.3221631909907
 20
195.8204546968674
 30
0.0
 10
122.3221631909907
 20
195.8204546968674
 30
0.0
 10
122.3221631909907
 20
195.8907131129197
 30
0.0
 10
122.3153914251775
 20
195.9686153345799
 30
0.0
 10
122.3009866196797
 20
196.0532785561299
 30
0.0
 10
122.2865925801054
 20
196.1235369721822
 30
0.0
 10
122.2654267747179
 20
196.1870343883448
 30
0.0
 10
122.2374892035172
 20
196.2437708046174
 30
0.0
 10
122.2095516323165
 20
196.3140292206698
 30
0.0
 10
122.1595977477804
 20
196.4054749739564
 30
0.0
 10
122.0893285658047
 20
196.5189478065018
 30
0.0
 10
122.032592149532
 20
196.6315378333291
 30
0.0
 10
121.8988255513938
 20
196.7653151973907
 30
0.0
 10
121.6871567315954
 20
196.9211196407111
 30
0.0
 10
121.4898927172946
 20
197.0760412783135
 30
0.0
 10
121.2638298579219
 20
197.1962751107487
 30
0.0
 10
121.0098294273485
 20
197.2809383322987
 30
0.0
 10
120.7702230363493
 20
197.3656015538487
 30
0.0
 10
120.5509319427898
 20
197.4214766962501
 30
0.0
 10
120.3536571625657
 20
197.4502863072455
 30
0.0
 10
120.1563931482649
 20
197.4926179180205
 30
0.0
 10
119.965890133854
 20
197.513783723408
 30
0.0
 10
119.7821588852563
 20
197.513783723408
 30
0.0
  0
POLYLINE
  5
46
330
1F
100
AcDbEntity
  8
_U+30EC_U+30A4_U+30E4_U+30FC 1
 62
     7
370
    25
100
AcDb2dPolyline
 66
     1
 10
0.0
 20
0.0
 30
0.0
  0
VERTEX
  5
47
330
46
100
AcDbEntity
  8
_U+30EC_U+30A4_U+30E4_U+30FC 1
 62
     7
370
    25
100
AcDbVertex
100
AcDb2dVertex
 10
114.9138298595094
 20
199.9691032757456
 30
0.0
  0
VERTEX
  5
48
330
46
100
AcDbEntity
  8
_U+30EC_U+30A4_U+30E4_U+30FC 1
 62
     7
370
    25
100
AcDbVertex
100
AcDb2dVertex
 10
114.9349956648969
 20
200.2654460830174
 30
0.0
  0
SEQEND
  5
49
330
46
100
AcDbEntity
  8
_U+30EC_U+30A4_U+30E4_U+30FC 1
 62
     7
370
    25
  0
SPLINE
  5
4A
330
1F
100
AcDbEntity
  8
_U+30EC_U+30A4_U+30E4_U+30FC 1
 62
     7
370
    25
100
AcDbSpline
210
0.0
220
0.0
230
1.0
 70
     8
 71
     3
 72
    35
 73
    31
 74
     0
 42
0.0000000001
 43
0.0000000001
 12
1.0
 22
0.0
 32
0.0
 13
1.0
 23
0.0
 33
0.0
 40
0.0
 40
0.0
 40
0.0
 40
0.0
 40
1.0
 40
1.0
 40
1.0
 40
2.0
 40
2.0
 40
2.0
 40
3.0
 40
3.0
 40
3.0
 40
4.0
 40
4.0
 40
4.0
 40
5.0
 40
5.0
 40
5.0
 40
6.0
 40
6.0
 40
6.0
 40
7.0
 40
7.0
 40
7.0
 40
8.0
 40
8.0
 40
8.0
 40
9.0
 40
9.0
 40
9.0
 40
10.0
 40
10.0
 40
10.0
 40
10.0
 10
114.9138298595094
 20
200.3077776937924
 30
0.0
 10
114.9138298595094
 20
200.3636528361938
 30
0.0
 10
114.9070580936962
 20
200.4415335260072
 30
0.0
 10
114.8926640541219
 20
200.540601553055
 30
0.0
 10
114.8782592486242
 20
200.6532131117291
 30
0.0
 10
114.829155872036
 20
200.7802079440541
 30
0.0
 10
114.744492650486
 20
200.9216075818768
 30
0.0
 10
114.659829428936
 20
201.0765292194791
 30
0.0
 10
114.5328238306875
 20
201.2247113890384
 30
0.0
 10
114.3634973875875
 20
201.3661110268612
 30
0.0
 10
114.1797661389898
 20
201.5066493908126
 30
0.0
 10
113.99688539834
 20
201.620122223358
 30
0.0
 10
113.8131541497422
 20
201.704785444908
 30
0.0
 10
113.6294336670679
 20
201.7750438609603
 30
0.0
 10
113.4177648472695
 20
201.8453238088594
 30
0.0
 10
113.1781584562704
 20
201.9164434987831
 30
0.0
 10
112.9385520652712
 20
201.9723186411844
 30
0.0
 10
112.6633858293103
 20
202.0011067203331
 30
0.0
 10
112.3526597483875
 20
202.0011067203331
 30
0.0
 10
112.0419336674648
 20
202.0146502519595
 30
0.0
 10
111.7455908601929
 20
201.993484446572
 30
0.0
 10
111.4636636243422
 20
201.9376093041706
 30
0.0
 10
111.1817256225681
 20
201.8808728878979
 30
0.0
 10
110.9412579576976
 20
201.8029921980844
 30
0.0
 10
110.7439939433969
 20
201.704785444908
 30
0.0
 10
110.5467191631728
 20
201.6056958860135
 30
0.0
 10
110.3985585254603
 20
201.5142716645737
 30
0.0
 10
110.2994904984126
 20
201.4296084430237
 30
0.0
 10
110.2994904984126
 20
201.4296084430237
 30
0.0
 10
110.278324693025
 20
201.4296084430237
 30
0.0
 10
110.278324693025
 20
201.4296084430237
 30
0.0
  0
POLYLINE
  5
4B
330
1F
100
AcDbEntity
  8
_U+30EC_U+30A4_U+30E4_U+30FC 1
 62
     7
370
    25
100
AcDb2dPolyline
 66
     1
 10
0.0
 20
0.0
 30
0.0
  0
VERTEX
  5
4C
330
4B
100
AcDbEntity
  8
_U+30EC_U+30A4_U+30E4_U+30FC 1
 62
     7
370
    25
100
AcDbVertex
100
AcDb2dVertex
 10
108.5426640557094
 20
199.2071127499487
 30
0.0
  0
VERTEX
  5
4D
330
4B
100
AcDbEntity
  8
_U+30EC_U+30A4_U+30E4_U+30FC 1
 62
     7
370
    25
100
AcDbVertex
100
AcDb2dVertex
 10
108.457990068236
 20
199.1224495283986
 30
0.0
  0
SEQEND
  5
4E
330
4B
100
AcDbEntity
  8
_U+30EC_U+30A4_U+30E4_U+30FC 1
 62
     7
370
    25
  0
SPLINE
  5
4F
330
1F
100
AcDbEntity
  8
_U+30EC_U+30A4_U+30E4_U+30FC 1
 62
     7
370
    25
100
AcDbSpline
210
0.0
220
0.0
230
1.0
 70
     8
 71
     3
 72
    26
 73
    22
 74
     0
 42
0.0000000001
 43
0.0000000001
 12
1.0
 22
0.0
 32
0.0
 13
1.0
 23
0.0
 33
0.0
 40
0.0
 40
0.0
 40
0.0
 40
0.0
 40
1.0
 40
1.0
 40
1.0
 40
2.0
 40
2.0
 40
2.0
 40
3.0
 40
3.0
 40
3.0
 40
4.0
 40
4.0
 40
4.0
 40
5.0
 40
5.0
 40
5.0
 40
6.0
 40
6.0
 40
6.0
 40
7.0
 40
7.0
 40
7.0
 40
7.0
 10
125.348991786561
 20
191.2907785573206
 30
0.0
 10
125.348991786561
 20
191.2907785573206
 30
0.0
 10
125.348991786561
 20
191.311944362708
 30
0.0
 10
125.348991786561
 20
191.311944362708
 30
0.0
 10
125.1796545775376
 20
191.7208771968072
 30
0.0
 10
124.9468199523516
 20
192.1797854472893
 30
0.0
 10
124.6504879110032
 20
192.6877863084361
 30
0.0
 10
124.3541558696547
 20
193.1813608322385
 30
0.0
 10
123.8605598140056
 20
193.8375438629447
 30
0.0
 10
123.168827704261
 20
194.6562708050143
 30
0.0
 10
122.4770955945164
 20
195.460614473433
 30
0.0
 10
121.3975964560601
 20
196.3775481686791
 30
0.0
 10
119.9303302888922
 20
197.4079546964705
 30
0.0
 10
118.4630533558009
 20
198.4239348869175
 30
0.0
 10
116.882325122011
 20
199.2494443607237
 30
0.0
 10
115.1889960954703
 20
199.8844400541956
 30
0.0
 10
113.510061108504
 20
200.5194357476675
 30
0.0
 10
112.1477626944023
 20
200.9707001925416
 30
0.0
 10
111.1038234009079
 20
201.2391161945361
 30
0.0
 10
110.0598841074134
 20
201.4931058591862
 30
0.0
 10
109.1209233329086
 20
201.6971416393001
 30
0.0
 10
108.288663625136
 20
201.8529460826205
 30
0.0
  0
POLYLINE
  5
50
330
1F
100
AcDbEntity
  8
_U+30EC_U+30A4_U+30E4_U+30FC 1
 62
     7
370
    25
100
AcDb2dPolyline
 66
     1
 10
0.0
 20
0.0
 30
0.0
  0
VERTEX
  5
51
330
50
100
AcDbEntity
  8
_U+30EC_U+30A4_U+30E4_U+30FC 1
 62
     7
370
    25
100
AcDbVertex
100
AcDb2dVertex
 10
124.3118242588797
 20
191.184949530383
 30
0.0
  0
VERTEX
  5
52
330
50
100
AcDbEntity
  8
_U+30EC_U+30A4_U+30E4_U+30FC 1
 62
     7
370
    25
100
AcDbVertex
100
AcDb2dVertex
 10
124.0366580229188
 20
191.2061153357705
 30
0.0
  0
SEQEND
  5
53
330
50
100
AcDbEntity
  8
_U+30EC_U+30A4_U+30E4_U+30FC 1
 62
     7
370
    25
  0
POLYLINE
  5
54
330
1F
100
AcDbEntity
  8
_U+30EC_U+30A4_U+30E4_U+30FC 1
 62
     7
370
    25
100
AcDb2dPolyline
 66
     1
 10
0.0
 20
0.0
 30
0.0
  0
VERTEX
  5
55
330
54
100
AcDbEntity
  8
_U+30EC_U+30A4_U+30E4_U+30FC 1
 62
     7
370
    25
100
AcDbVertex
100
AcDb2dVertex
 10
128.5874892019297
 20
165.2134404935003
 30
0.0
  0
VERTEX
  5
56
330
54
100
AcDbEntity
  8
_U+30EC_U+30A4_U+30E4_U+30FC 1
 62
     7
370
    25
100
AcDbVertex
100
AcDb2dVertex
 10
147.9761528492907
 20
153.4236131920315
 30
0.0
  0
SEQEND
  5
57
330
54
100
AcDbEntity
  8
_U+30EC_U+30A4_U+30E4_U+30FC 1
 62
     7
370
    25
  0
POLYLINE
  5
58
330
1F
100
AcDbEntity
  8
_U+30EC_U+30A4_U+30E4_U+30FC 1
 62
     7
370
    25
100
AcDb2dPolyline
 66
     1
 10
0.0
 20
0.0
 30
0.0
  0
VERTEX
  5
59
330
58
100
AcDbEntity
  8
_U+30EC_U+30A4_U+30E4_U+30FC 1
 62
     7
370
    25
100
AcDbVertex
100
AcDb2dVertex
 10
151.5109930719313
 20
159.2444465239096
 30
0.0
  0
VERTEX
  5
5A
330
58
100
AcDbEntity
  8
_U+30EC_U+30A4_U+30E4_U+30FC 1
 62
     7
370
    25
100
AcDbVertex
100
AcDb2dVertex
 10
131.8259866172985
 20
171.1824452290146
 30
0.0
  0
SEQEND
  5
5B
330
58
100
AcDbEntity
  8
_U+30EC_U+30A4_U+30E4_U+30FC 1
 62
     7
370
    25
  0
POLYLINE
  5
5C
330
1F
100
AcDbEntity
  8
_U+30EC_U+30A4_U+30E4_U+30FC 1
 62
     7
370
    25
100
AcDb2dPolyline
 66
     1
 10
0.0
 20
0.0
 30
0.0
  0
VERTEX
  5
5D
330
5C
100
AcDbEntity
  8
_U+30EC_U+30A4_U+30E4_U+30FC 1
 62
     7
370
    25
100
AcDbVertex
100
AcDb2dVertex
 10
125.6029922171344
 20
184.9619443642955
 30
0.0
  0
VERTEX
  5
5E
330
5C
100
AcDbEntity
  8
_U+30EC_U+30A4_U+30E4_U+30FC 1
 62
     7
370
    25
100
AcDbVertex
100
AcDb2dVertex
 10
125.6664896332969
 20
187.0574452250455
 30
0.0
  0
SEQEND
  5
5F
330
5C
100
AcDbEntity
  8
_U+30EC_U+30A4_U+30E4_U+30FC 1
 62
     7
370
    25
  0
POLYLINE
  5
60
330
1F
100
AcDbEntity
  8
_U+30EC_U+30A4_U+30E4_U+30FC 1
 62
     7
370
    25
100
AcDb2dPolyline
 66
     1
 10
0.0
 20
0.0
 30
0.0
  0
VERTEX
  5
61
330
60
100
AcDbEntity
  8
_U+30EC_U+30A4_U+30E4_U+30FC 1
 62
     7
370
    25
100
AcDbVertex
100
AcDb2dVertex
 10
77.19483051489455
 20
188.4967845869361
 30
0.0
  0
VERTEX
  5
62
330
60
100
AcDbEntity
  8
_U+30EC_U+30A4_U+30E4_U+30FC 1
 62
     7
370
    25
100
AcDbVertex
100
AcDb2dVertex
 10
77.13132771577034
 20
186.4012837261861
 30
0.0
  0
SEQEND
  5
63
330
60
100
AcDbEntity
  8
_U+30EC_U+30A4_U+30E4_U+30FC 1
 62
     7
370
    25
  0
POLYLINE
  5
64
330
1F
100
AcDbEntity
  8
_U+30EC_U+30A4_U+30E4_U+30FC 1
 62
     7
370
    25
100
AcDb2dPolyline
 66
     1
 10
0.0
 20
0.0
 30
0.0
  0
VERTEX
  5
65
330
64
100
AcDbEntity
  8
_U+30EC_U+30A4_U+30E4_U+30FC 1
 62
     7
370
    25
100
AcDbVertex
100
AcDb2dVertex
 10
84.87833008233673
 20
198.0429503899424
 30
0.0
  0
VERTEX
  5
66
330
64
100
AcDbEntity
  8
_U+30EC_U+30A4_U+30E4_U+30FC 1
 62
     7
370
    25
100
AcDbVertex
100
AcDb2dVertex
 10
83.75649395014378
 20
197.386788891083
 30
0.0
  0
SEQEND
  5
67
330
64
100
AcDbEntity
  8
_U+30EC_U+30A4_U+30E4_U+30FC 1
 62
     7
370
    25
  0
POLYLINE
  5
68
330
1F
100
AcDbEntity
  8
_U+30EC_U+30A4_U+30E4_U+30FC 1
 62
     7
370
    25
100
AcDb2dPolyline
 66
     1
 10
0.0
 20
0.0
 30
0.0
  0
VERTEX
  5
69
330
68
100
AcDbEntity
  8
_U+30EC_U+30A4_U+30E4_U+30FC 1
 62
     7
370
    25
100
AcDbVertex
100
AcDb2dVertex
 10
70.06166341937424
 20
175.8391162008861
 30
0.0
  0
VERTEX
  5
6A
330
68
100
AcDbEntity
  8
_U+30EC_U+30A4_U+30E4_U+30FC 1
 62
     7
370
    25
100
AcDbVertex
100
AcDb2dVertex
 10
70.01932642563753
 20
174.5902798534065
 30
0.0
  0
SEQEND
  5
6B
330
68
100
AcDbEntity
  8
_U+30EC_U+30A4_U+30E4_U+30FC 1
 62
     7
370
    25
  0
POLYLINE
  5
6C
330
1F
100
AcDbEntity
  8
_U+30EC_U+30A4_U+30E4_U+30FC 1
 62
     7
370
    25
100
AcDb2dPolyline
 66
     1
 10
0.0
 20
0.0
 30
0.0
  0
VERTEX
  5
6D
330
6C
100
AcDbEntity
  8
_U+30EC_U+30A4_U+30E4_U+30FC 1
 62
     7
370
    25
100
AcDbVertex
100
AcDb2dVertex
 10
131.9953238263219
 20
172.7487794232299
 30
0.0
  0
VERTEX
  5
6E
330
6C
100
AcDbEntity
  8
_U+30EC_U+30A4_U+30E4_U+30FC 1
 62
     7
370
    25
100
AcDbVertex
100
AcDb2dVertex
 10
132.0376554370969
 20
173.9976157707096
 30
0.0
  0
SEQEND
  5
6F
330
6C
100
AcDbEntity
  8
_U+30EC_U+30A4_U+30E4_U+30FC 1
 62
     7
370
    25
  0
POLYLINE
  5
70
330
1F
100
AcDbEntity
  8
_U+30EC_U+30A4_U+30E4_U+30FC 1
 62
     7
370
    25
100
AcDb2dPolyline
 66
     1
 10
0.0
 20
0.0
 30
0.0
  0
VERTEX
  5
71
330
70
100
AcDbEntity
  8
_U+30EC_U+30A4_U+30E4_U+30FC 1
 62
     7
370
    25
100
AcDbVertex
100
AcDb2dVertex
 10
108.6484930826469
 20
191.7564478076924
 30
0.0
  0
VERTEX
  5
72
330
70
100
AcDbEntity
  8
_U+30EC_U+30A4_U+30E4_U+30FC 1
 62
     7
370
    25
100
AcDbVertex
100
AcDb2dVertex
 10
108.6484930826469
 20
191.5236024165831
 30
0.0
  0
SEQEND
  5
73
330
70
100
AcDbEntity
  8
_U+30EC_U+30A4_U+30E4_U+30FC 1
 62
     7
370
    25
  0
SPLINE
  5
74
330
1F
100
AcDbEntity
  8
_U+30EC_U+30A4_U+30E4_U+30FC 1
 62
     7
370
    25
100
AcDbSpline
210
0.0
220
0.0
230
1.0
 70
     8
 71
     3
 72
    11
 73
     7
 74
     0
 42
0.0000000001
 43
0.0000000001
 12
1.0
 22
0.0
 32
0.0
 13
1.0
 23
0.0
 33
0.0
 40
0.0
 40
0.0
 40
0.0
 40
0.0
 40
1.0
 40
1.0
 40
1.0
 40
2.0
 40
2.0
 40
2.0
 40
2.0
 10
112.9664896364719
 20
190.7192802800112
 30
0.0
 10
112.24683072145
 20
190.9309383338862
 30
0.0
 10
111.5271610405047
 20
191.1214521142205
 30
0.0
 10
110.8074913595594
 20
191.2907785573206
 30
0.0
 10
110.0878216786141
 20
191.4601050004206
 30
0.0
 10
109.3681627635922
 20
191.6150481698697
 30
0.0
 10
108.6484930826469
 20
191.7564478076924
 30
0.0
  0
POLYLINE
  5
75
330
1F
100
AcDbEntity
  8
_U+30EC_U+30A4_U+30E4_U+30FC 1
 62
     7
370
    25
100
AcDb2dPolyline
 66
     1
 10
0.0
 20
0.0
 30
0.0
  0
VERTEX
  5
76
330
75
100
AcDbEntity
  8
_U+30EC_U+30A4_U+30E4_U+30FC 1
 62
     7
370
    25
100
AcDbVertex
100
AcDb2dVertex
 10
112.9664896364719
 20
190.6769486692361
 30
0.0
  0
VERTEX
  5
77
330
75
100
AcDbEntity
  8
_U+30EC_U+30A4_U+30E4_U+30FC 1
 62
     7
370
    25
100
AcDbVertex
100
AcDb2dVertex
 10
112.9664896364719
 20
190.7192802800112
 30
0.0
  0
SEQEND
  5
78
330
75
100
AcDbEntity
  8
_U+30EC_U+30A4_U+30E4_U+30FC 1
 62
     7
370
    25
  0
POLYLINE
  5
79
330
1F
100
AcDbEntity
  8
_U+30EC_U+30A4_U+30E4_U+30FC 1
 62
     7
370
    25
100
AcDb2dPolyline
 66
     1
 10
0.0
 20
0.0
 30
0.0
  0
VERTEX
  5
7A
330
79
100
AcDbEntity
  8
_U+30EC_U+30A4_U+30E4_U+30FC 1
 62
     7
370
    25
100
AcDbVertex
100
AcDb2dVertex
 10
113.8131541497422
 20
198.6567802780268
 30
0.0
  0
VERTEX
  5
7B
330
79
100
AcDbEntity
  8
_U+30EC_U+30A4_U+30E4_U+30FC 1
 62
     7
370
    25
100
AcDbVertex
100
AcDb2dVertex
 10
114.2788234001141
 20
190.2536110296393
 30
0.0
  0
SEQEND
  5
7C
330
79
100
AcDbEntity
  8
_U+30EC_U+30A4_U+30E4_U+30FC 1
 62
     7
370
    25
  0
SPLINE
  5
7D
330
1F
100
AcDbEntity
  8
_U+30EC_U+30A4_U+30E4_U+30FC 1
 62
     7
370
    25
100
AcDbSpline
210
0.0
220
0.0
230
1.0
 70
     8
 71
     3
 72
    26
 73
    22
 74
     0
 42
0.0000000001
 43
0.0000000001
 12
1.0
 22
0.0
 32
0.0
 13
1.0
 23
0.0
 33
0.0
 40
0.0
 40
0.0
 40
0.0
 40
0.0
 40
1.0
 40
1.0
 40
1.0
 40
2.0
 40
2.0
 40
2.0
 40
3.0
 40
3.0
 40
3.0
 40
4.0
 40
4.0
 40
4.0
 40
5.0
 40
5.0
 40
5.0
 40
6.0
 40
6.0
 40
6.0
 40
7.0
 40
7.0
 40
7.0
 40
7.0
 10
112.9029922203094
 20
199.693947805708
 30
0.0
 10
112.9876554418594
 20
199.6651597265594
 30
0.0
 10
113.0579246238351
 20
199.6372113894353
 30
0.0
 10
113.1146610401078
 20
199.609284584158
 30
0.0
 10
113.1713866904572
 20
199.566952973383
 30
0.0
 10
113.2348841066197
 20
199.524621362608
 30
0.0
 10
113.3051640545188
 20
199.4822682199862
 30
0.0
 10
113.3618897048681
 20
199.4399366092112
 30
0.0
 10
113.4253871210306
 20
199.3899827246751
 30
0.0
 10
113.4956563030063
 20
199.3341075822737
 30
0.0
 10
113.552392719279
 20
199.2629878923501
 30
0.0
 10
113.6014960958672
 20
199.1994904761875
 30
0.0
 10
113.6438277066422
 20
199.1436153337862
 30
0.0
 10
113.6717652778429
 20
199.0868789175134
 30
0.0
 10
113.7005533569915
 20
199.0301425012407
 30
0.0
 10
113.7284909281922
 20
198.9742888906861
 30
0.0
 10
113.7564284993929
 20
198.9175309425666
 30
0.0
 10
113.7775943047804
 20
198.8608160581407
 30
0.0
 10
113.7919883443547
 20
198.8049409157393
 30
0.0
 10
113.8063931498524
 20
198.7482044994666
 30
0.0
 10
113.8131541497422
 20
198.6991118888018
 30
0.0
 10
113.8131541497422
 20
198.6567802780268
 30
0.0
  0
SPLINE
  5
7E
330
1F
100
AcDbEntity
  8
_U+30EC_U+30A4_U+30E4_U+30FC 1
 62
     7
370
    25
100
AcDbSpline
210
0.0
220
0.0
230
1.0
 70
     8
 71
     3
 72
    11
 73
     7
 74
     0
 42
0.0000000001
 43
0.0000000001
 12
1.0
 22
0.0
 32
0.0
 13
1.0
 23
0.0
 33
0.0
 40
0.0
 40
0.0
 40
0.0
 40
0.0
 40
1.0
 40
1.0
 40
1.0
 40
2.0
 40
2.0
 40
2.0
 40
2.0
 10
112.9029922203094
 20
199.693947805708
 30
0.0
 10
112.1697790077377
 20
199.9191493912095
 30
0.0
 10
111.428093013457
 20
200.1240464451947
 30
0.0
 10
110.6804965272344
 20
200.3077776937924
 30
0.0
 10
109.9328892750884
 20
200.4906476685188
 30
0.0
 10
109.1844315149945
 20
200.6532131117291
 30
0.0
 10
108.4368242628485
 20
200.7946127495518
 30
0.0
  0
POLYLINE
  5
7F
330
1F
100
AcDbEntity
  8
_U+30EC_U+30A4_U+30E4_U+30FC 1
 62
     7
370
    25
100
AcDb2dPolyline
 66
     1
 10
0.0
 20
0.0
 30
0.0
  0
VERTEX
  5
80
330
7F
100
AcDbEntity
  8
_U+30EC_U+30A4_U+30E4_U+30FC 1
 62
     7
370
    25
100
AcDbVertex
100
AcDb2dVertex
 10
108.415658457461
 20
201.4084426376362
 30
0.0
  0
VERTEX
  5
81
330
7F
100
AcDbEntity
  8
_U+30EC_U+30A4_U+30E4_U+30FC 1
 62
     7
370
    25
100
AcDbVertex
100
AcDb2dVertex
 10
108.4368242628485
 20
200.7946127495518
 30
0.0
  0
SEQEND
  5
82
330
7F
100
AcDbEntity
  8
_U+30EC_U+30A4_U+30E4_U+30FC 1
 62
     7
370
    25
  0
POLYLINE
  5
83
330
1F
100
AcDbEntity
  8
_U+30EC_U+30A4_U+30E4_U+30FC 1
 62
     7
370
    25
100
AcDb2dPolyline
 66
     1
 10
0.0
 20
0.0
 30
0.0
  0
VERTEX
  5
84
330
83
100
AcDbEntity
  8
_U+30EC_U+30A4_U+30E4_U+30FC 1
 62
     7
370
    25
100
AcDbVertex
100
AcDb2dVertex
 10
125.4124892027235
 20
191.100286308833
 30
0.0
  0
VERTEX
  5
85
330
83
100
AcDbEntity
  8
_U+30EC_U+30A4_U+30E4_U+30FC 1
 62
     7
370
    25
100
AcDbVertex
100
AcDb2dVertex
 10
124.9679965236625
 20
192.0316032777299
 30
0.0
  0
VERTEX
  5
86
330
83
100
AcDbEntity
  8
_U+30EC_U+30A4_U+30E4_U+30FC 1
 62
     7
370
    25
100
AcDbVertex
100
AcDb2dVertex
 10
124.3753216750422
 20
192.9417759730862
 30
0.0
  0
VERTEX
  5
87
330
83
100
AcDbEntity
  8
_U+30EC_U+30A4_U+30E4_U+30FC 1
 62
     7
370
    25
100
AcDbVertex
100
AcDb2dVertex
 10
123.6979943707953
 20
193.8307828630549
 30
0.0
  0
VERTEX
  5
88
330
83
100
AcDbEntity
  8
_U+30EC_U+30A4_U+30E4_U+30FC 1
 62
     7
370
    25
100
AcDbVertex
100
AcDb2dVertex
 10
122.8936614683
 20
194.6986024157893
 30
0.0
  0
VERTEX
  5
89
330
83
100
AcDbEntity
  8
_U+30EC_U+30A4_U+30E4_U+30FC 1
 62
     7
370
    25
100
AcDbVertex
100
AcDb2dVertex
 10
122.0046545783313
 20
195.545277694983
 30
0.0
  0
VERTEX
  5
8A
330
83
100
AcDbEntity
  8
_U+30EC_U+30A4_U+30E4_U+30FC 1
 62
     7
370
    25
100
AcDbVertex
100
AcDb2dVertex
 10
120.988663621961
 20
196.3496213634018
 30
0.0
  0
VERTEX
  5
8B
330
83
100
AcDbEntity
  8
_U+30EC_U+30A4_U+30E4_U+30FC 1
 62
     7
370
    25
100
AcDbVertex
100
AcDb2dVertex
 10
119.8879879121938
 20
197.1116118891987
 30
0.0
  0
VERTEX
  5
8C
330
83
100
AcDbEntity
  8
_U+30EC_U+30A4_U+30E4_U+30FC 1
 62
     7
370
    25
100
AcDbVertex
100
AcDb2dVertex
 10
118.7026597468
 20
197.8312708042206
 30
0.0
  0
VERTEX
  5
8D
330
83
100
AcDbEntity
  8
_U+30EC_U+30A4_U+30E4_U+30FC 1
 62
     7
370
    25
100
AcDbVertex
100
AcDb2dVertex
 10
117.4326575939329
 20
198.5086196403143
 30
0.0
  0
VERTEX
  5
8E
330
83
100
AcDbEntity
  8
_U+30EC_U+30A4_U+30E4_U+30FC 1
 62
     7
370
    25
100
AcDbVertex
100
AcDb2dVertex
 10
116.0991580249032
 20
199.1224495283986
 30
0.0
  0
VERTEX
  5
8F
330
83
100
AcDbEntity
  8
_U+30EC_U+30A4_U+30E4_U+30FC 1
 62
     7
370
    25
100
AcDbVertex
100
AcDb2dVertex
 10
114.659829428936
 20
199.693947805708
 30
0.0
  0
VERTEX
  5
90
330
83
100
AcDbEntity
  8
_U+30EC_U+30A4_U+30E4_U+30FC 1
 62
     7
370
    25
100
AcDbVertex
100
AcDb2dVertex
 10
113.1781584562704
 20
200.2231144722424
 30
0.0
  0
VERTEX
  5
91
330
83
100
AcDbEntity
  8
_U+30EC_U+30A4_U+30E4_U+30FC 1
 62
     7
370
    25
100
AcDbVertex
100
AcDb2dVertex
 10
111.6329900674422
 20
200.6676179172268
 30
0.0
  0
VERTEX
  5
92
330
83
100
AcDbEntity
  8
_U+30EC_U+30A4_U+30E4_U+30FC 1
 62
     7
370
    25
100
AcDbVertex
100
AcDb2dVertex
 10
110.0454900678391
 20
201.0697682195893
 30
0.0
  0
VERTEX
  5
93
330
83
100
AcDbEntity
  8
_U+30EC_U+30A4_U+30E4_U+30FC 1
 62
     7
370
    25
100
AcDbVertex
100
AcDb2dVertex
 10
108.415658457461
 20
201.4084426376362
 30
0.0
  0
SEQEND
  5
94
330
83
100
AcDbEntity
  8
_U+30EC_U+30A4_U+30E4_U+30FC 1
 62
     7
370
    25
  0
POLYLINE
  5
95
330
1F
100
AcDbEntity
  8
_U+30EC_U+30A4_U+30E4_U+30FC 1
 62
     7
370
    25
100
AcDb2dPolyline
 66
     1
 10
0.0
 20
0.0
 30
0.0
  0
VERTEX
  5
96
330
95
100
AcDbEntity
  8
_U+30EC_U+30A4_U+30E4_U+30FC 1
 62
     7
370
    25
100
AcDbVertex
100
AcDb2dVertex
 10
125.4124892027235
 20
191.100286308833
 30
0.0
  0
VERTEX
  5
97
330
95
100
AcDbEntity
  8
_U+30EC_U+30A4_U+30E4_U+30FC 1
 62
     7
370
    25
100
AcDbVertex
100
AcDb2dVertex
 10
125.5183289955844
 20
190.4229374727393
 30
0.0
  0
SEQEND
  5
98
330
95
100
AcDbEntity
  8
_U+30EC_U+30A4_U+30E4_U+30FC 1
 62
     7
370
    25
  0
SPLINE
  5
99
330
1F
100
AcDbEntity
  8
_U+30EC_U+30A4_U+30E4_U+30FC 1
 62
     7
370
    25
100
AcDbSpline
210
0.0
220
0.0
230
1.0
 70
     8
 71
     3
 72
    11
 73
     7
 74
     0
 42
0.0000000001
 43
0.0000000001
 12
1.0
 22
0.0
 32
0.0
 13
1.0
 23
0.0
 33
0.0
 40
0.0
 40
0.0
 40
0.0
 40
0.0
 40
1.0
 40
1.0
 40
1.0
 40
2.0
 40
2.0
 40
2.0
 40
2.0
 10
125.5183289955844
 20
190.4229374727393
 30
0.0
 10
125.3210542153603
 20
190.8877669810867
 30
0.0
 10
125.0873798481498
 20
191.3331101680955
 30
0.0
 10
124.8198251200266
 20
191.7564478076924
 30
0.0
 10
124.5522703919034
 20
192.1933289789156
 30
0.0
 10
124.2618703743436
 20
192.6031230868861
 30
0.0
 10
123.9519948013688
 20
192.9841075838612
 30
0.0
  0
SPLINE
  5
9A
330
1F
100
AcDbEntity
  8
_U+30EC_U+30A4_U+30E4_U+30FC 1
 62
     7
370
    25
100
AcDbSpline
210
0.0
220
0.0
230
1.0
 70
     8
 71
     3
 72
    32
 73
    28
 74
     0
 42
0.0000000001
 43
0.0000000001
 12
1.0
 22
0.0
 32
0.0
 13
1.0
 23
0.0
 33
0.0
 40
0.0
 40
0.0
 40
0.0
 40
0.0
 40
1.0
 40
1.0
 40
1.0
 40
2.0
 40
2.0
 40
2.0
 40
3.0
 40
3.0
 40
3.0
 40
4.0
 40
4.0
 40
4.0
 40
5.0
 40
5.0
 40
5.0
 40
6.0
 40
6.0
 40
6.0
 40
7.0
 40
7.0
 40
7.0
 40
8.0
 40
8.0
 40
8.0
 40
9.0
 40
9.0
 40
9.0
 40
9.0
 10
123.6133203833219
 20
192.7089521138236
 30
0.0
 10
123.6133203833219
 20
192.764827256225
 30
0.0
 10
123.6133203833219
 20
192.8071588670001
 30
0.0
 10
123.6133203833219
 20
192.8359469461487
 30
0.0
 10
123.5989263437476
 20
192.8782785569237
 30
0.0
 10
123.5989263437476
 20
192.9206101676987
 30
0.0
 10
123.6133203833219
 20
192.9629417784737
 30
0.0
 10
123.6133203833219
 20
193.0052733892487
 30
0.0
 10
123.6200921491351
 20
193.0399827262626
 30
0.0
 10
123.6344969546328
 20
193.0687708054112
 30
0.0
 10
123.6488909942071
 20
193.1111024161862
 30
0.0
 10
123.6624237599101
 20
193.1322682215737
 30
0.0
 10
123.6768285654078
 20
193.1322682215737
 30
0.0
 10
123.7047661366085
 20
193.1458117532001
 30
0.0
 10
123.725931941996
 20
193.153455558808
 30
0.0
 10
123.7403259815704
 20
193.153455558808
 30
0.0
 10
123.768263552771
 20
193.1390292214635
 30
0.0
 10
123.7894293581586
 20
193.1246459478126
 30
0.0
 10
123.8038233977329
 20
193.1111024161862
 30
0.0
 10
123.8317609689336
 20
193.0966976106885
 30
0.0
 10
123.8605598140056
 20
193.0823143370376
 30
0.0
 10
123.8884866192829
 20
193.0687708054112
 30
0.0
 10
123.9028914247806
 20
193.0399827262626
 30
0.0
 10
123.9164241904836
 20
193.0188169208751
 30
0.0
 10
123.9308289959813
 20
193.0052733892487
 30
0.0
 10
123.9308289959813
 20
193.0052733892487
 30
0.0
 10
123.9519948013688
 20
192.9841075838612
 30
0.0
 10
123.9519948013688
 20
192.9841075838612
 30
0.0
  0
POLYLINE
  5
9B
330
1F
100
AcDbEntity
  8
_U+30EC_U+30A4_U+30E4_U+30FC 1
 62
     7
370
    25
100
AcDb2dPolyline
 66
     1
 10
0.0
 20
0.0
 30
0.0
  0
VERTEX
  5
9C
330
9B
100
AcDbEntity
  8
_U+30EC_U+30A4_U+30E4_U+30FC 1
 62
     7
370
    25
100
AcDbVertex
100
AcDb2dVertex
 10
124.6081563002282
 20
185.66043747393
 30
0.0
  0
VERTEX
  5
9D
330
9B
100
AcDbEntity
  8
_U+30EC_U+30A4_U+30E4_U+30FC 1
 62
     7
370
    25
100
AcDbVertex
100
AcDb2dVertex
 10
123.6133203833219
 20
192.7089521138236
 30
0.0
  0
SEQEND
  5
9E
330
9B
100
AcDbEntity
  8
_U+30EC_U+30A4_U+30E4_U+30FC 1
 62
     7
370
    25
  0
POLYLINE
  5
9F
330
1F
100
AcDbEntity
  8
_U+30EC_U+30A4_U+30E4_U+30FC 1
 62
     7
370
    25
100
AcDb2dPolyline
 66
     1
 10
0.0
 20
0.0
 30
0.0
  0
VERTEX
  5
A0
330
9F
100
AcDbEntity
  8
_U+30EC_U+30A4_U+30E4_U+30FC 1
 62
     7
370
    25
100
AcDbVertex
100
AcDb2dVertex
 10
108.5426640557094
 20
191.7987794184674
 30
0.0
  0
VERTEX
  5
A1
330
9F
100
AcDbEntity
  8
_U+30EC_U+30A4_U+30E4_U+30FC 1
 62
     7
370
    25
100
AcDbVertex
100
AcDb2dVertex
 10
108.013497389175
 20
196.7517716657643
 30
0.0
  0
SEQEND
  5
A2
330
9F
100
AcDbEntity
  8
_U+30EC_U+30A4_U+30E4_U+30FC 1
 62
     7
370
    25
  0
POLYLINE
  5
A3
330
1F
100
AcDbEntity
  8
_U+30EC_U+30A4_U+30E4_U+30FC 1
 62
     7
370
    25
100
AcDb2dPolyline
 66
     1
 10
0.0
 20
0.0
 30
0.0
  0
VERTEX
  5
A4
330
A3
100
AcDbEntity
  8
_U+30EC_U+30A4_U+30E4_U+30FC 1
 62
     7
370
    25
100
AcDbVertex
100
AcDb2dVertex
 10
108.2251554430501
 20
198.6144486672518
 30
0.0
  0
VERTEX
  5
A5
330
A3
100
AcDbEntity
  8
_U+30EC_U+30A4_U+30E4_U+30FC 1
 62
     7
370
    25
100
AcDbVertex
100
AcDb2dVertex
 10
108.013497389175
 20
196.7517716657643
 30
0.0
  0
SEQEND
  5
A6
330
A3
100
AcDbEntity
  8
_U+30EC_U+30A4_U+30E4_U+30FC 1
 62
     7
370
    25
  0
POLYLINE
  5
A7
330
1F
100
AcDbEntity
  8
_U+30EC_U+30A4_U+30E4_U+30FC 1
 62
     7
370
    25
100
AcDb2dPolyline
 66
     1
 10
0.0
 20
0.0
 30
0.0
  0
VERTEX
  5
A8
330
A7
100
AcDbEntity
  8
_U+30EC_U+30A4_U+30E4_U+30FC 1
 62
     7
370
    25
100
AcDbVertex
100
AcDb2dVertex
 10
108.2251554430501
 20
198.6144486672518
 30
0.0
  0
VERTEX
  5
A9
330
A7
100
AcDbEntity
  8
_U+30EC_U+30A4_U+30E4_U+30FC 1
 62
     7
370
    25
100
AcDbVertex
100
AcDb2dVertex
 10
108.3098294305235
 20
198.6991118888018
 30
0.0
  0
SEQEND
  5
AA
330
A7
100
AcDbEntity
  8
_U+30EC_U+30A4_U+30E4_U+30FC 1
 62
     7
370
    25
  0
POLYLINE
  5
AB
330
1F
100
AcDbEntity
  8
_U+30EC_U+30A4_U+30E4_U+30FC 1
 62
     7
370
    25
100
AcDb2dPolyline
 66
     1
 10
0.0
 20
0.0
 30
0.0
  0
VERTEX
  5
AC
330
AB
100
AcDbEntity
  8
_U+30EC_U+30A4_U+30E4_U+30FC 1
 62
     7
370
    25
100
AcDbVertex
100
AcDb2dVertex
 10
108.3098294305235
 20
198.6991118888018
 30
0.0
  0
VERTEX
  5
AD
330
AB
100
AcDbEntity
  8
_U+30EC_U+30A4_U+30E4_U+30FC 1
 62
     7
370
    25
100
AcDbVertex
100
AcDb2dVertex
 10
108.098160610725
 20
196.8999538353236
 30
0.0
  0
SEQEND
  5
AE
330
AB
100
AcDbEntity
  8
_U+30EC_U+30A4_U+30E4_U+30FC 1
 62
     7
370
    25
  0
POLYLINE
  5
AF
330
1F
100
AcDbEntity
  8
_U+30EC_U+30A4_U+30E4_U+30FC 1
 62
     7
370
    25
100
AcDb2dPolyline
 66
     1
 10
0.0
 20
0.0
 30
0.0
  0
VERTEX
  5
B0
330
AF
100
AcDbEntity
  8
_U+30EC_U+30A4_U+30E4_U+30FC 1
 62
     7
370
    25
100
AcDbVertex
100
AcDb2dVertex
 10
108.098160610725
 20
196.8999538353236
 30
0.0
  0
VERTEX
  5
B1
330
AF
100
AcDbEntity
  8
_U+30EC_U+30A4_U+30E4_U+30FC 1
 62
     7
370
    25
100
AcDbVertex
100
AcDb2dVertex
 10
108.6273272772594
 20
192.0527690831175
 30
0.0
  0
SEQEND
  5
B2
330
AF
100
AcDbEntity
  8
_U+30EC_U+30A4_U+30E4_U+30FC 1
 62
     7
370
    25
  0
POLYLINE
  5
B3
330
1F
100
AcDbEntity
  8
_U+30EC_U+30A4_U+30E4_U+30FC 1
 62
     7
370
    25
100
AcDb2dPolyline
 66
     1
 10
0.0
 20
0.0
 30
0.0
  0
VERTEX
  5
B4
330
B3
100
AcDbEntity
  8
_U+30EC_U+30A4_U+30E4_U+30FC 1
 62
     7
370
    25
100
AcDbVertex
100
AcDb2dVertex
 10
108.6273272772594
 20
192.0527690831175
 30
0.0
  0
VERTEX
  5
B5
330
B3
100
AcDbEntity
  8
_U+30EC_U+30A4_U+30E4_U+30FC 1
 62
     7
370
    25
100
AcDbVertex
100
AcDb2dVertex
 10
108.6484930826469
 20
191.7564478076924
 30
0.0
  0
SEQEND
  5
B6
330
B3
100
AcDbEntity
  8
_U+30EC_U+30A4_U+30E4_U+30FC 1
 62
     7
370
    25
  0
POLYLINE
  5
B7
330
1F
100
AcDbEntity
  8
_U+30EC_U+30A4_U+30E4_U+30FC 1
 62
     7
370
    25
100
AcDb2dPolyline
 66
     1
 10
0.0
 20
0.0
 30
0.0
  0
VERTEX
  5
B8
330
B7
100
AcDbEntity
  8
_U+30EC_U+30A4_U+30E4_U+30FC 1
 62
     7
370
    25
100
AcDbVertex
100
AcDb2dVertex
 10
108.5426640557094
 20
191.7987794184674
 30
0.0
  0
VERTEX
  5
B9
330
B7
100
AcDbEntity
  8
_U+30EC_U+30A4_U+30E4_U+30FC 1
 62
     7
370
    25
100
AcDbVertex
100
AcDb2dVertex
 10
108.5638298610969
 20
191.5659555592049
 30
0.0
  0
SEQEND
  5
BA
330
B7
100
AcDbEntity
  8
_U+30EC_U+30A4_U+30E4_U+30FC 1
 62
     7
370
    25
  0
POLYLINE
  5
BB
330
1F
100
AcDbEntity
  8
_U+30EC_U+30A4_U+30E4_U+30FC 1
 62
     7
370
    25
100
AcDb2dPolyline
 66
     1
 10
0.0
 20
0.0
 30
0.0
  0
VERTEX
  5
BC
330
BB
100
AcDbEntity
  8
_U+30EC_U+30A4_U+30E4_U+30FC 1
 62
     7
370
    25
100
AcDbVertex
100
AcDb2dVertex
 10
108.5638298610969
 20
191.5447897538174
 30
0.0
  0
VERTEX
  5
BD
330
BB
100
AcDbEntity
  8
_U+30EC_U+30A4_U+30E4_U+30FC 1
 62
     7
370
    25
100
AcDbVertex
100
AcDb2dVertex
 10
108.5638298610969
 20
191.5659555592049
 30
0.0
  0
SEQEND
  5
BE
330
BB
100
AcDbEntity
  8
_U+30EC_U+30A4_U+30E4_U+30FC 1
 62
     7
370
    25
  0
SPLINE
  5
BF
330
1F
100
AcDbEntity
  8
_U+30EC_U+30A4_U+30E4_U+30FC 1
 62
     7
370
    25
100
AcDbSpline
210
0.0
220
0.0
230
1.0
 70
     8
 71
     3
 72
    11
 73
     7
 74
     0
 42
0.0000000001
 43
0.0000000001
 12
1.0
 22
0.0
 32
0.0
 13
1.0
 23
0.0
 33
0.0
 40
0.0
 40
0.0
 40
0.0
 40
0.0
 40
1.0
 40
1.0
 40
1.0
 40
2.0
 40
2.0
 40
2.0
 40
2.0
 10
112.9241580256969
 20
191.015623087283
 30
0.0
 10
112.2188931502493
 20
191.227281141158
 30
0.0
 10
111.5059952351172
 20
191.4177733896456
 30
0.0
 10
110.7863255541719
 20
191.5871213645924
 30
0.0
 10
110.0666558732266
 20
191.7564478076924
 30
0.0
 10
109.3469969582047
 20
191.9113694452947
 30
0.0
 10
108.6273272772594
 20
192.0527690831175
 30
0.0
  0
POLYLINE
  5
C0
330
1F
100
AcDbEntity
  8
_U+30EC_U+30A4_U+30E4_U+30FC 1
 62
     7
370
    25
100
AcDb2dPolyline
 66
     1
 10
0.0
 20
0.0
 30
0.0
  0
VERTEX
  5
C1
330
C0
100
AcDbEntity
  8
_U+30EC_U+30A4_U+30E4_U+30FC 1
 62
     7
370
    25
100
AcDbVertex
100
AcDb2dVertex
 10
112.9664896364719
 20
190.7192802800112
 30
0.0
  0
VERTEX
  5
C2
330
C0
100
AcDbEntity
  8
_U+30EC_U+30A4_U+30E4_U+30FC 1
 62
     7
370
    25
100
AcDbVertex
100
AcDb2dVertex
 10
112.9241580256969
 20
191.015623087283
 30
0.0
  0
SEQEND
  5
C3
330
C0
100
AcDbEntity
  8
_U+30EC_U+30A4_U+30E4_U+30FC 1
 62
     7
370
    25
  0
POLYLINE
  5
C4
330
1F
100
AcDbEntity
  8
_U+30EC_U+30A4_U+30E4_U+30FC 1
 62
     7
370
    25
100
AcDb2dPolyline
 66
     1
 10
0.0
 20
0.0
 30
0.0
  0
VERTEX
  5
C5
330
C4
100
AcDbEntity
  8
_U+30EC_U+30A4_U+30E4_U+30FC 1
 62
     7
370
    25
100
AcDbVertex
100
AcDb2dVertex
 10
112.9241580256969
 20
191.015623087283
 30
0.0
  0
VERTEX
  5
C6
330
C4
100
AcDbEntity
  8
_U+30EC_U+30A4_U+30E4_U+30FC 1
 62
     7
370
    25
100
AcDbVertex
100
AcDb2dVertex
 10
111.9928302908766
 20
195.9686153345799
 30
0.0
  0
SEQEND
  5
C7
330
C4
100
AcDbEntity
  8
_U+30EC_U+30A4_U+30E4_U+30FC 1
 62
     7
370
    25
  0
POLYLINE
  5
C8
330
1F
100
AcDbEntity
  8
_U+30EC_U+30A4_U+30E4_U+30FC 1
 62
     7
370
    25
100
AcDb2dPolyline
 66
     1
 10
0.0
 20
0.0
 30
0.0
  0
VERTEX
  5
C9
330
C8
100
AcDbEntity
  8
_U+30EC_U+30A4_U+30E4_U+30FC 1
 62
     7
370
    25
100
AcDbVertex
100
AcDb2dVertex
 10
113.8131541497422
 20
198.6567802780268
 30
0.0
  0
VERTEX
  5
CA
330
C8
100
AcDbEntity
  8
_U+30EC_U+30A4_U+30E4_U+30FC 1
 62
     7
370
    25
100
AcDbVertex
100
AcDb2dVertex
 10
113.6861593174172
 20
198.4662880295392
 30
0.0
  0
SEQEND
  5
CB
330
C8
100
AcDbEntity
  8
_U+30EC_U+30A4_U+30E4_U+30FC 1
 62
     7
370
    25
  0
POLYLINE
  5
CC
330
1F
100
AcDbEntity
  8
_U+30EC_U+30A4_U+30E4_U+30FC 1
 62
     7
370
    25
100
AcDb2dPolyline
 66
     1
 10
0.0
 20
0.0
 30
0.0
  0
VERTEX
  5
CD
330
CC
100
AcDbEntity
  8
_U+30EC_U+30A4_U+30E4_U+30FC 1
 62
     7
370
    25
100
AcDbVertex
100
AcDb2dVertex
 10
113.6861593174172
 20
198.4662880295392
 30
0.0
  0
VERTEX
  5
CE
330
CC
100
AcDbEntity
  8
_U+30EC_U+30A4_U+30E4_U+30FC 1
 62
     7
370
    25
100
AcDbVertex
100
AcDb2dVertex
 10
114.1306627624016
 20
190.3382742511893
 30
0.0
  0
SEQEND
  5
CF
330
CC
100
AcDbEntity
  8
_U+30EC_U+30A4_U+30E4_U+30FC 1
 62
     7
370
    25
  0
SPLINE
  5
D0
330
1F
100
AcDbEntity
  8
_U+30EC_U+30A4_U+30E4_U+30FC 1
 62
     7
370
    25
100
AcDbSpline
210
0.0
220
0.0
230
1.0
 70
     8
 71
     3
 72
    20
 73
    16
 74
     0
 42
0.0000000001
 43
0.0000000001
 12
1.0
 22
0.0
 32
0.0
 13
1.0
 23
0.0
 33
0.0
 40
0.0
 40
0.0
 40
0.0
 40
0.0
 40
1.0
 40
1.0
 40
1.0
 40
2.0
 40
2.0
 40
2.0
 40
3.0
 40
3.0
 40
3.0
 40
4.0
 40
4.0
 40
4.0
 40
5.0
 40
5.0
 40
5.0
 40
5.0
 10
120.3959887733407
 20
188.1792759742768
 30
0.0
 10
120.3815947337664
 20
188.1928195059032
 30
0.0
 10
120.3748229679532
 20
188.2072027795541
 30
0.0
 10
120.3748229679532
 20
188.2216075850518
 30
0.0
 10
120.3604289283789
 20
188.2351511166782
 30
0.0
 10
120.3468853967525
 20
188.2495343903291
 30
0.0
 10
120.3324913571782
 20
188.2639391958268
 30
0.0
 10
120.3324913571782
 20
188.2774827274532
 30
0.0
 10
120.325719591365
 20
188.2918660011041
 30
0.0
 10
120.3113255517907
 20
188.3062708066018
 30
0.0
 10
120.3113255517907
 20
188.3198143382282
 30
0.0
 10
120.3113255517907
 20
188.3409801436157
 30
0.0
 10
120.3113255517907
 20
188.3697897546111
 30
0.0
 10
120.2969315122164
 20
188.3833117543907
 30
0.0
 10
120.2901597464032
 20
188.4044775597782
 30
0.0
 10
120.2901597464032
 20
188.4332871707736
 30
0.0
  0
SPLINE
  5
D1
330
1F
100
AcDbEntity
  8
_U+30EC_U+30A4_U+30E4_U+30FC 1
 62
     7
370
    25
100
AcDbSpline
210
0.0
220
0.0
230
1.0
 70
     8
 71
     3
 72
    29
 73
    25
 74
     0
 42
0.0000000001
 43
0.0000000001
 12
1.0
 22
0.0
 32
0.0
 13
1.0
 23
0.0
 33
0.0
 40
0.0
 40
0.0
 40
0.0
 40
0.0
 40
1.0
 40
1.0
 40
1.0
 40
2.0
 40
2.0
 40
2.0
 40
3.0
 40
3.0
 40
3.0
 40
4.0
 40
4.0
 40
4.0
 40
5.0
 40
5.0
 40
5.0
 40
6.0
 40
6.0
 40
6.0
 40
7.0
 40
7.0
 40
7.0
 40
8.0
 40
8.0
 40
8.0
 40
8.0
 10
109.3681627635922
 20
199.4399366092112
 30
0.0
 10
109.3258203868938
 20
199.4534801408376
 30
0.0
 10
109.2834887761188
 20
199.4611024145987
 30
0.0
 10
109.2411571653438
 20
199.4611024145987
 30
0.0
 10
109.1988255545688
 20
199.4611024145987
 30
0.0
 10
109.1564939437938
 20
199.4611024145987
 30
0.0
 10
109.1141623330188
 20
199.4611024145987
 30
0.0
 10
109.0574259167461
 20
199.4611024145987
 30
0.0
 10
108.9939285005836
 20
199.4534801408376
 30
0.0
 10
108.9236593186078
 20
199.4399366092112
 30
0.0
 10
108.8669336682585
 20
199.4255318037135
 30
0.0
 10
108.7966537203594
 20
199.3976049984362
 30
0.0
 10
108.7119904988094
 20
199.3552733876612
 30
0.0
 10
108.6417213168337
 20
199.2985369713885
 30
0.0
 10
108.5849956664844
 20
199.2494443607237
 30
0.0
 10
108.5426640557094
 20
199.2071127499487
 30
0.0
 10
108.500321679011
 20
199.150376333676
 30
0.0
 10
108.457990068236
 20
199.1012837230111
 30
0.0
 10
108.415658457461
 20
199.0589521122361
 30
0.0
 10
108.3877208862603
 20
199.0021941641166
 30
0.0
 10
108.3665550808728
 20
198.9386967479541
 30
0.0
 10
108.3521610412985
 20
198.8684383319018
 30
0.0
 10
108.3242234700978
 20
198.8117019156291
 30
0.0
 10
108.3098294305235
 20
198.7549870312032
 30
0.0
 10
108.3098294305235
 20
198.6991118888018
 30
0.0
  0
SPLINE
  5
D2
330
1F
100
AcDbEntity
  8
_U+30EC_U+30A4_U+30E4_U+30FC 1
 62
     7
370
    25
100
AcDbSpline
210
0.0
220
0.0
230
1.0
 70
     8
 71
     3
 72
    11
 73
     7
 74
     0
 42
0.0000000001
 43
0.0000000001
 12
1.0
 22
0.0
 32
0.0
 13
1.0
 23
0.0
 33
0.0
 40
0.0
 40
0.0
 40
0.0
 40
0.0
 40
1.0
 40
1.0
 40
1.0
 40
2.0
 40
2.0
 40
2.0
 40
2.0
 10
111.5271610405047
 20
198.9319357480643
 30
0.0
 10
111.1740925828836
 20
199.0301425012407
 30
0.0
 10
110.8142631253726
 20
199.1224495283986
 30
0.0
 10
110.4476619020485
 20
199.2071127499487
 30
0.0
 10
110.0945934444273
 20
199.2917759714987
 30
0.0
 10
109.7347639869164
 20
199.3688169192876
 30
0.0
 10
109.3681627635922
 20
199.4399366092112
 30
0.0
  0
SPLINE
  5
D3
330
1F
100
AcDbEntity
  8
_U+30EC_U+30A4_U+30E4_U+30FC 1
 62
     7
370
    25
100
AcDbSpline
210
0.0
220
0.0
230
1.0
 70
     8
 71
     3
 72
    32
 73
    28
 74
     0
 42
0.0000000001
 43
0.0000000001
 12
1.0
 22
0.0
 32
0.0
 13
1.0
 23
0.0
 33
0.0
 40
0.0
 40
0.0
 40
0.0
 40
0.0
 40
1.0
 40
1.0
 40
1.0
 40
2.0
 40
2.0
 40
2.0
 40
3.0
 40
3.0
 40
3.0
 40
4.0
 40
4.0
 40
4.0
 40
5.0
 40
5.0
 40
5.0
 40
6.0
 40
6.0
 40
6.0
 40
7.0
 40
7.0
 40
7.0
 40
8.0
 40
8.0
 40
8.0
 40
9.0
 40
9.0
 40
9.0
 40
9.0
 10
112.289162332225
 20
197.7254417772831
 30
0.0
 10
112.289162332225
 20
197.7254417772831
 30
0.0
 10
112.289162332225
 20
197.7466075826705
 30
0.0
 10
112.289162332225
 20
197.7466075826705
 30
0.0
 10
112.289162332225
 20
197.7889391934456
 30
0.0
 10
112.289162332225
 20
197.8312708042206
 30
0.0
 10
112.289162332225
 20
197.8736024149956
 30
0.0
 10
112.289162332225
 20
197.9159555576174
 30
0.0
 10
112.289162332225
 20
197.9582871683924
 30
0.0
 10
112.289162332225
 20
198.0006187791674
 30
0.0
 10
112.289162332225
 20
198.0564939215688
 30
0.0
 10
112.2823905664118
 20
198.1199913377313
 30
0.0
 10
112.2679965268375
 20
198.1911110276549
 30
0.0
 10
112.2400589556368
 20
198.2613694437072
 30
0.0
 10
112.2044883447516
 20
198.3392716653674
 30
0.0
 10
112.1621567339766
 20
198.4239348869175
 30
0.0
 10
112.1198251232016
 20
198.5086196403143
 30
0.0
 10
112.0707217466134
 20
198.5721170564768
 30
0.0
 10
112.0139960962641
 20
198.6144486672518
 30
0.0
 10
111.9716537195657
 20
198.6703238096532
 30
0.0
 10
111.9225611089009
 20
198.7202776941893
 30
0.0
 10
111.8658246926282
 20
198.7626093049643
 30
0.0
 10
111.8234930818532
 20
198.8049409157393
 30
0.0
 10
111.7667566655804
 20
198.8396502527532
 30
0.0
 10
111.6964874836047
 20
198.8684383319018
 30
0.0
 10
111.6397618332554
 20
198.8963651371791
 30
0.0
 10
111.583886690854
 20
198.9175309425666
 30
0.0
 10
111.5271610405047
 20
198.9319357480643
 30
0.0
  0
POLYLINE
  5
D4
330
1F
100
AcDbEntity
  8
_U+30EC_U+30A4_U+30E4_U+30FC 1
 62
     7
370
    25
100
AcDb2dPolyline
 66
     1
 10
0.0
 20
0.0
 30
0.0
  0
VERTEX
  5
D5
330
D4
100
AcDbEntity
  8
_U+30EC_U+30A4_U+30E4_U+30FC 1
 62
     7
370
    25
100
AcDbVertex
100
AcDb2dVertex
 10
111.9928302908766
 20
195.9686153345799
 30
0.0
  0
VERTEX
  5
D6
330
D4
100
AcDbEntity
  8
_U+30EC_U+30A4_U+30E4_U+30FC 1
 62
     7
370
    25
100
AcDbVertex
100
AcDb2dVertex
 10
112.289162332225
 20
197.7254417772831
 30
0.0
  0
SEQEND
  5
D7
330
D4
100
AcDbEntity
  8
_U+30EC_U+30A4_U+30E4_U+30FC 1
 62
     7
370
    25
  0
SPLINE
  5
D8
330
1F
100
AcDbEntity
  8
_U+30EC_U+30A4_U+30E4_U+30FC 1
 62
     7
370
    25
100
AcDbSpline
210
0.0
220
0.0
230
1.0
 70
     8
 71
     3
 72
    20
 73
    16
 74
     0
 42
0.0000000001
 43
0.0000000001
 12
1.0
 22
0.0
 32
0.0
 13
1.0
 23
0.0
 33
0.0
 40
0.0
 40
0.0
 40
0.0
 40
0.0
 40
1.0
 40
1.0
 40
1.0
 40
2.0
 40
2.0
 40
2.0
 40
3.0
 40
3.0
 40
3.0
 40
4.0
 40
4.0
 40
4.0
 40
5.0
 40
5.0
 40
5.0
 40
5.0
 10
108.457990068236
 20
199.1224495283986
 30
0.0
 10
108.4435960286617
 20
199.09366144925
 30
0.0
 10
108.4224302232742
 20
199.0724741120158
 30
0.0
 10
108.3944926520735
 20
199.0589521122361
 30
0.0
 10
108.3800986124992
 20
199.0301425012407
 30
0.0
 10
108.3589328071117
 20
199.0021941641166
 30
0.0
 10
108.330995235911
 20
198.9742888906861
 30
0.0
 10
108.3165904304133
 20
198.9454792796907
 30
0.0
 10
108.3030576647103
 20
198.9107699426768
 30
0.0
 10
108.288663625136
 20
198.8684383319018
 30
0.0
 10
108.2742588196382
 20
198.8261067211268
 30
0.0
 10
108.2607260539353
 20
198.7837751103518
 30
0.0
 10
108.2463212484376
 20
198.7414434995768
 30
0.0
 10
108.2463212484376
 20
198.6991118888018
 30
0.0
 10
108.2395602485477
 20
198.6567802780268
 30
0.0
 10
108.2251554430501
 20
198.6144486672518
 30
0.0
  0
POLYLINE
  5
D9
330
1F
100
AcDbEntity
  8
_U+30EC_U+30A4_U+30E4_U+30FC 1
 62
     7
370
    25
100
AcDb2dPolyline
 66
     1
 10
0.0
 20
0.0
 30
0.0
  0
VERTEX
  5
DA
330
D9
100
AcDbEntity
  8
_U+30EC_U+30A4_U+30E4_U+30FC 1
 62
     7
370
    25
100
AcDbVertex
100
AcDb2dVertex
 10
125.4124892027235
 20
191.100286308833
 30
0.0
  0
VERTEX
  5
DB
330
D9
100
AcDbEntity
  8
_U+30EC_U+30A4_U+30E4_U+30FC 1
 62
     7
370
    25
100
AcDbVertex
100
AcDb2dVertex
 10
125.348991786561
 20
191.2907785573206
 30
0.0
  0
SEQEND
  5
DC
330
D9
100
AcDbEntity
  8
_U+30EC_U+30A4_U+30E4_U+30FC 1
 62
     7
370
    25
  0
SPLINE
  5
DD
330
1F
100
AcDbEntity
  8
_U+30EC_U+30A4_U+30E4_U+30FC 1
 62
     7
370
    25
100
AcDbSpline
210
0.0
220
0.0
230
1.0
 70
     8
 71
     3
 72
    35
 73
    31
 74
     0
 42
0.0000000001
 43
0.0000000001
 12
1.0
 22
0.0
 32
0.0
 13
1.0
 23
0.0
 33
0.0
 40
0.0
 40
0.0
 40
0.0
 40
0.0
 40
1.0
 40
1.0
 40
1.0
 40
2.0
 40
2.0
 40
2.0
 40
3.0
 40
3.0
 40
3.0
 40
4.0
 40
4.0
 40
4.0
 40
5.0
 40
5.0
 40
5.0
 40
6.0
 40
6.0
 40
6.0
 40
7.0
 40
7.0
 40
7.0
 40
8.0
 40
8.0
 40
8.0
 40
9.0
 40
9.0
 40
9.0
 40
10.0
 40
10.0
 40
10.0
 40
10.0
 10
108.0769948053375
 20
201.6412880287455
 30
0.0
 10
108.0769948053375
 20
201.6412880287455
 30
0.0
 10
108.0769948053375
 20
201.662453834133
 30
0.0
 10
108.0769948053375
 20
201.662453834133
 30
0.0
 10
108.0913888449118
 20
201.6759758339126
 30
0.0
 10
108.1049323765382
 20
201.6903806394103
 30
0.0
 10
108.1193264161125
 20
201.704785444908
 30
0.0
 10
108.1337204556868
 20
201.7327122501853
 30
0.0
 10
108.1472639873132
 20
201.7538780555728
 30
0.0
 10
108.1616580268875
 20
201.7682828610705
 30
0.0
 10
108.1616580268875
 20
201.7818263926969
 30
0.0
 10
108.1760520664618
 20
201.7962096663478
 30
0.0
 10
108.2039896376625
 20
201.8106144718455
 30
0.0
 10
108.2183944431602
 20
201.8241580034719
 30
0.0
 10
108.2319272088632
 20
201.8385412771228
 30
0.0
 10
108.2463212484376
 20
201.8529460826205
 30
0.0
 10
108.2607260539353
 20
201.8529460826205
 30
0.0
 10
108.2818918593228
 20
201.8453238088594
 30
0.0
 10
108.3098294305235
 20
201.831780277233
 30
0.0
 10
108.3377670017242
 20
201.831780277233
 30
0.0
 10
108.3589328071117
 20
201.7962096663478
 30
0.0
 10
108.373326846686
 20
201.7259512502955
 30
0.0
 10
108.3877208862603
 20
201.6548100285251
 30
0.0
 10
108.4012644178867
 20
201.5989348861237
 30
0.0
 10
108.415658457461
 20
201.5566032753487
 30
0.0
 10
108.415658457461
 20
201.5142716645737
 30
0.0
 10
108.415658457461
 20
201.4854835854251
 30
0.0
 10
108.415658457461
 20
201.4719400537987
 30
0.0
 10
108.415658457461
 20
201.4431519746501
 30
0.0
 10
108.415658457461
 20
201.4219861692626
 30
0.0
 10
108.415658457461
 20
201.4084426376362
 30
0.0
  0
POLYLINE
  5
DE
330
1F
100
AcDbEntity
  8
_U+30EC_U+30A4_U+30E4_U+30FC 1
 62
     7
370
    25
100
AcDb2dPolyline
 66
     1
 10
0.0
 20
0.0
 30
0.0
  0
VERTEX
  5
DF
330
DE
100
AcDbEntity
  8
_U+30EC_U+30A4_U+30E4_U+30FC 1
 62
     7
370
    25
100
AcDbVertex
100
AcDb2dVertex
 10
108.4368242628485
 20
200.7946127495518
 30
0.0
  0
VERTEX
  5
E0
330
DE
100
AcDbEntity
  8
_U+30EC_U+30A4_U+30E4_U+30FC 1
 62
     7
370
    25
100
AcDbVertex
100
AcDb2dVertex
 10
108.3521610412985
 20
200.6041205010642
 30
0.0
  0
SEQEND
  5
E1
330
DE
100
AcDbEntity
  8
_U+30EC_U+30A4_U+30E4_U+30FC 1
 62
     7
370
    25
  0
POLYLINE
  5
E2
330
1F
100
AcDbEntity
  8
_U+30EC_U+30A4_U+30E4_U+30FC 1
 62
     7
370
    25
100
AcDb2dPolyline
 66
     1
 10
0.0
 20
0.0
 30
0.0
  0
VERTEX
  5
E3
330
E2
100
AcDbEntity
  8
_U+30EC_U+30A4_U+30E4_U+30FC 1
 62
     7
370
    25
100
AcDbVertex
100
AcDb2dVertex
 10
112.7548208166735
 20
199.524621362608
 30
0.0
  0
VERTEX
  5
E4
330
E2
100
AcDbEntity
  8
_U+30EC_U+30A4_U+30E4_U+30FC 1
 62
     7
370
    25
100
AcDbVertex
100
AcDb2dVertex
 10
112.9029922203094
 20
199.693947805708
 30
0.0
  0
SEQEND
  5
E5
330
E2
100
AcDbEntity
  8
_U+30EC_U+30A4_U+30E4_U+30FC 1
 62
     7
370
    25
  0
SPLINE
  5
E6
330
1F
100
AcDbEntity
  8
_U+30EC_U+30A4_U+30E4_U+30FC 1
 62
     7
370
    25
100
AcDbSpline
210
0.0
220
0.0
230
1.0
 70
     8
 71
     3
 72
    11
 73
     7
 74
     0
 42
0.0000000001
 43
0.0000000001
 12
1.0
 22
0.0
 32
0.0
 13
1.0
 23
0.0
 33
0.0
 40
0.0
 40
0.0
 40
0.0
 40
0.0
 40
1.0
 40
1.0
 40
1.0
 40
2.0
 40
2.0
 40
2.0
 40
2.0
 10
112.7548208166735
 20
199.524621362608
 30
0.0
 10
112.0351619016516
 20
199.736279416483
 30
0.0
 10
111.3078699469452
 20
199.9335326648604
 30
0.0
 10
110.5746567343735
 20
200.1172854453049
 30
0.0
 10
109.8414435218018
 20
200.3001554200313
 30
0.0
 10
109.0997575275211
 20
200.4626993313948
 30
0.0
 10
108.3521610412985
 20
200.6041205010642
 30
0.0
  0
POLYLINE
  5
E7
330
1F
100
AcDbEntity
  8
_U+30EC_U+30A4_U+30E4_U+30FC 1
 62
     7
370
    25
100
AcDb2dPolyline
 66
     1
 10
0.0
 20
0.0
 30
0.0
  0
VERTEX
  5
E8
330
E7
100
AcDbEntity
  8
_U+30EC_U+30A4_U+30E4_U+30FC 1
 62
     7
370
    25
100
AcDbVertex
100
AcDb2dVertex
 10
124.5446588840657
 20
191.6082871699799
 30
0.0
  0
VERTEX
  5
E9
330
E7
100
AcDbEntity
  8
_U+30EC_U+30A4_U+30E4_U+30FC 1
 62
     7
370
    25
100
AcDbVertex
100
AcDb2dVertex
 10
124.3964874804297
 20
191.6082871699799
 30
0.0
  0
SEQEND
  5
EA
330
E7
100
AcDbEntity
  8
_U+30EC_U+30A4_U+30E4_U+30FC 1
 62
     7
370
    25
  0
SPLINE
  5
EB
330
1F
100
AcDbEntity
  8
_U+30EC_U+30A4_U+30E4_U+30FC 1
 62
     7
370
    25
100
AcDbSpline
210
0.0
220
0.0
230
1.0
 70
     8
 71
     3
 72
    29
 73
    25
 74
     0
 42
0.0000000001
 43
0.0000000001
 12
1.0
 22
0.0
 32
0.0
 13
1.0
 23
0.0
 33
0.0
 40
0.0
 40
0.0
 40
0.0
 40
0.0
 40
1.0
 40
1.0
 40
1.0
 40
2.0
 40
2.0
 40
2.0
 40
3.0
 40
3.0
 40
3.0
 40
4.0
 40
4.0
 40
4.0
 40
5.0
 40
5.0
 40
5.0
 40
6.0
 40
6.0
 40
6.0
 40
7.0
 40
7.0
 40
7.0
 40
8.0
 40
8.0
 40
8.0
 40
8.0
 10
108.330995235911
 20
201.2179503891487
 30
0.0
 10
108.330995235911
 20
201.2602819999236
 30
0.0
 10
108.330995235911
 20
201.2949913369376
 30
0.0
 10
108.330995235911
 20
201.3237794160862
 30
0.0
 10
108.3165904304133
 20
201.3517062213635
 30
0.0
 10
108.3098294305235
 20
201.3796545584876
 30
0.0
 10
108.3098294305235
 20
201.4084426376362
 30
0.0
 10
108.3098294305235
 20
201.4363694429135
 30
0.0
 10
108.3030576647103
 20
201.457535248301
 30
0.0
 10
108.288663625136
 20
201.4719400537987
 30
0.0
 10
108.288663625136
 20
201.499866859076
 30
0.0
 10
108.2818918593228
 20
201.5210326644635
 30
0.0
 10
108.2674870538251
 20
201.5354374699612
 30
0.0
 10
108.2674870538251
 20
201.5354374699612
 30
0.0
 10
108.2530930142508
 20
201.542198469851
 30
0.0
 10
108.2251554430501
 20
201.5566032753487
 30
0.0
 10
108.2107614034757
 20
201.5701468069751
 30
0.0
 10
108.1895955980882
 20
201.5633642752385
 30
0.0
 10
108.1616580268875
 20
201.5354374699612
 30
0.0
 10
108.1472639873132
 20
201.5210326644635
 30
0.0
 10
108.1260981819257
 20
201.499866859076
 30
0.0
 10
108.098160610725
 20
201.4719400537987
 30
0.0
 10
108.0837665711507
 20
201.4296084430237
 30
0.0
 10
108.0769948053375
 20
201.4084426376362
 30
0.0
 10
108.0769948053375
 20
201.4084426376362
 30
0.0
  0
POLYLINE
  5
EC
330
1F
100
AcDbEntity
  8
_U+30EC_U+30A4_U+30E4_U+30FC 1
 62
     7
370
    25
100
AcDb2dPolyline
 66
     1
 10
0.0
 20
0.0
 30
0.0
  0
VERTEX
  5
ED
330
EC
100
AcDbEntity
  8
_U+30EC_U+30A4_U+30E4_U+30FC 1
 62
     7
370
    25
100
AcDbVertex
100
AcDb2dVertex
 10
108.0769948053375
 20
201.4084426376362
 30
0.0
  0
VERTEX
  5
EE
330
EC
100
AcDbEntity
  8
_U+30EC_U+30A4_U+30E4_U+30FC 1
 62
     7
370
    25
100
AcDbVertex
100
AcDb2dVertex
 10
107.8864917909266
 20
201.0697682195893
 30
0.0
  0
SEQEND
  5
EF
330
EC
100
AcDbEntity
  8
_U+30EC_U+30A4_U+30E4_U+30FC 1
 62
     7
370
    25
  0
POLYLINE
  5
F0
330
1F
100
AcDbEntity
  8
_U+30EC_U+30A4_U+30E4_U+30FC 1
 62
     7
370
    25
100
AcDb2dPolyline
 66
     1
 10
0.0
 20
0.0
 30
0.0
  0
VERTEX
  5
F1
330
F0
100
AcDbEntity
  8
_U+30EC_U+30A4_U+30E4_U+30FC 1
 62
     7
370
    25
100
AcDbVertex
100
AcDb2dVertex
 10
107.7806627639891
 20
201.0909555568236
 30
0.0
  0
VERTEX
  5
F2
330
F0
100
AcDbEntity
  8
_U+30EC_U+30A4_U+30E4_U+30FC 1
 62
     7
370
    25
100
AcDbVertex
100
AcDb2dVertex
 10
108.0769948053375
 20
201.6412880287455
 30
0.0
  0
SEQEND
  5
F3
330
F0
100
AcDbEntity
  8
_U+30EC_U+30A4_U+30E4_U+30FC 1
 62
     7
370
    25
  0
POLYLINE
  5
F4
330
1F
100
AcDbEntity
  8
_U+30EC_U+30A4_U+30E4_U+30FC 1
 62
     7
370
    25
100
AcDb2dPolyline
 66
     1
 10
0.0
 20
0.0
 30
0.0
  0
VERTEX
  5
F5
330
F4
100
AcDbEntity
  8
_U+30EC_U+30A4_U+30E4_U+30FC 1
 62
     7
370
    25
100
AcDbVertex
100
AcDb2dVertex
 10
108.330995235911
 20
201.2179503891487
 30
0.0
  0
VERTEX
  5
F6
330
F4
100
AcDbEntity
  8
_U+30EC_U+30A4_U+30E4_U+30FC 1
 62
     7
370
    25
100
AcDbVertex
100
AcDb2dVertex
 10
108.3521610412985
 20
200.6041205010642
 30
0.0
  0
SEQEND
  5
F7
330
F4
100
AcDbEntity
  8
_U+30EC_U+30A4_U+30E4_U+30FC 1
 62
     7
370
    25
  0
SPLINE
  5
F8
330
1F
100
AcDbEntity
  8
_U+30EC_U+30A4_U+30E4_U+30FC 1
 62
     7
370
    25
100
AcDbSpline
210
0.0
220
0.0
230
1.0
 70
     8
 71
     3
 72
    35
 73
    31
 74
     0
 42
0.0000000001
 43
0.0000000001
 12
1.0
 22
0.0
 32
0.0
 13
1.0
 23
0.0
 33
0.0
 40
0.0
 40
0.0
 40
0.0
 40
0.0
 40
1.0
 40
1.0
 40
1.0
 40
2.0
 40
2.0
 40
2.0
 40
3.0
 40
3.0
 40
3.0
 40
4.0
 40
4.0
 40
4.0
 40
5.0
 40
5.0
 40
5.0
 40
6.0
 40
6.0
 40
6.0
 40
7.0
 40
7.0
 40
7.0
 40
8.0
 40
8.0
 40
8.0
 40
9.0
 40
9.0
 40
9.0
 40
10.0
 40
10.0
 40
10.0
 40
10.0
 10
113.6861593174172
 20
198.4662880295392
 30
0.0
 10
113.6861593174172
 20
198.4662880295392
 30
0.0
 10
113.6861593174172
 20
198.4874538349268
 30
0.0
 10
113.6861593174172
 20
198.4874538349268
 30
0.0
 10
113.6861593174172
 20
198.5153806402041
 30
0.0
 10
113.679387551604
 20
198.5433074454814
 30
0.0
 10
113.6649935120297
 20
198.5721170564768
 30
0.0
 10
113.6649935120297
 20
198.6144486672518
 30
0.0
 10
113.6582217462165
 20
198.6567802780268
 30
0.0
 10
113.6438277066422
 20
198.6991118888018
 30
0.0
 10
113.6294336670679
 20
198.7414434995768
 30
0.0
 10
113.608257095757
 20
198.7905361102416
 30
0.0
 10
113.5803302904797
 20
198.8472725265143
 30
0.0
 10
113.552392719279
 20
198.9031476689157
 30
0.0
 10
113.510061108504
 20
198.9666450850782
 30
0.0
 10
113.4533246922313
 20
199.0377863068486
 30
0.0
 10
113.3830555102556
 20
199.108044722901
 30
0.0
 10
113.3263298599063
 20
199.1715421390635
 30
0.0
 10
113.2839874832079
 20
199.2282785553362
 30
0.0
 10
113.2272618328586
 20
199.2706101661112
 30
0.0
 10
113.1713866904572
 20
199.3129417768862
 30
0.0
 10
113.1146610401078
 20
199.3552733876612
 30
0.0
 10
113.0579246238351
 20
199.3832001929385
 30
0.0
 10
113.0020602473571
 20
199.4111485300626
 30
0.0
 10
112.9453238310844
 20
199.4399366092112
 30
0.0
 10
112.8750546491087
 20
199.4678634144885
 30
0.0
 10
112.8183289987594
 20
199.4958117516126
 30
0.0
 10
112.7759973879844
 20
199.524621362608
 30
0.0
 10
112.7759973879844
 20
199.524621362608
 30
0.0
 10
112.7548208166735
 20
199.524621362608
 30
0.0
 10
112.7548208166735
 20
199.524621362608
 30
0.0
  0
POLYLINE
  5
F9
330
1F
100
AcDbEntity
  8
_U+30EC_U+30A4_U+30E4_U+30FC 1
 62
     7
370
    25
100
AcDb2dPolyline
 66
     1
 10
0.0
 20
0.0
 30
0.0
  0
VERTEX
  5
FA
330
F9
100
AcDbEntity
  8
_U+30EC_U+30A4_U+30E4_U+30FC 1
 62
     7
370
    25
100
AcDbVertex
100
AcDb2dVertex
 10
124.6504879110032
 20
186.8457871711705
 30
0.0
  0
VERTEX
  5
FB
330
F9
100
AcDbEntity
  8
_U+30EC_U+30A4_U+30E4_U+30FC 1
 62
     7
370
    25
100
AcDbVertex
100
AcDb2dVertex
 10
125.2854943703985
 20
185.2159555607924
 30
0.0
  0
SEQEND
  5
FC
330
F9
100
AcDbEntity
  8
_U+30EC_U+30A4_U+30E4_U+30FC 1
 62
     7
370
    25
  0
SPLINE
  5
FD
330
1F
100
AcDbEntity
  8
_U+30EC_U+30A4_U+30E4_U+30FC 1
 62
     7
370
    25
100
AcDbSpline
210
0.0
220
0.0
230
1.0
 70
     8
 71
     3
 72
    29
 73
    25
 74
     0
 42
0.0000000001
 43
0.0000000001
 12
1.0
 22
0.0
 32
0.0
 13
1.0
 23
0.0
 33
0.0
 40
0.0
 40
0.0
 40
0.0
 40
0.0
 40
1.0
 40
1.0
 40
1.0
 40
2.0
 40
2.0
 40
2.0
 40
3.0
 40
3.0
 40
3.0
 40
4.0
 40
4.0
 40
4.0
 40
5.0
 40
5.0
 40
5.0
 40
6.0
 40
6.0
 40
6.0
 40
7.0
 40
7.0
 40
7.0
 40
8.0
 40
8.0
 40
8.0
 40
8.0
 10
124.5234930786782
 20
191.0367888926705
 30
0.0
 10
124.5090990391038
 20
191.0503108924501
 30
0.0
 10
124.4955555074775
 20
191.0714766978376
 30
0.0
 10
124.4811614679031
 20
191.100286308833
 30
0.0
 10
124.4667566624055
 20
191.1138083086126
 30
0.0
 10
124.4455908570179
 20
191.1349956458469
 30
0.0
 10
124.4176532858173
 20
191.1637837249955
 30
0.0
 10
124.3897264805399
 20
191.1773272566219
 30
0.0
 10
124.3609276354679
 20
191.184949530383
 30
0.0
 10
124.3329900642672
 20
191.184949530383
 30
0.0
 10
124.3050524930665
 20
191.184949530383
 30
0.0
 10
124.2762644139179
 20
191.184949530383
 30
0.0
 10
124.2483268427172
 20
191.184949530383
 30
0.0
 10
124.2203892715165
 20
191.184949530383
 30
0.0
 10
124.1848294265547
 20
191.1705447248853
 30
0.0
 10
124.1424870498563
 20
191.142617919608
 30
0.0
 10
124.1001554390813
 20
191.1138083086126
 30
0.0
 10
124.0578238283063
 20
191.0714766978376
 30
0.0
 10
124.0154922175313
 20
191.015623087283
 30
0.0
 10
123.9731606067563
 20
190.9732699446612
 30
0.0
 10
123.9452230355556
 20
190.9309383338862
 30
0.0
 10
123.9308289959813
 20
190.8886067231112
 30
0.0
 10
123.9164241904836
 20
190.8462751123362
 30
0.0
 10
123.9028914247806
 20
190.810704501451
 30
0.0
 10
123.8884866192829
 20
190.7827776961737
 30
0.0
  0
SPLINE
  5
FE
330
1F
100
AcDbEntity
  8
_U+30EC_U+30A4_U+30E4_U+30FC 1
 62
     7
370
    25
100
AcDbSpline
210
0.0
220
0.0
230
1.0
 70
     8
 71
     3
 72
    11
 73
     7
 74
     0
 42
0.0000000001
 43
0.0000000001
 12
1.0
 22
0.0
 32
0.0
 13
1.0
 23
0.0
 33
0.0
 40
0.0
 40
0.0
 40
0.0
 40
0.0
 40
1.0
 40
1.0
 40
1.0
 40
2.0
 40
2.0
 40
2.0
 40
2.0
 10
125.264328565011
 20
189.8091075846549
 30
0.0
 10
125.1517170063369
 20
190.0199258965054
 30
0.0
 10
125.0382657056382
 20
190.2248229504907
 30
0.0
 10
124.9256541469641
 20
190.4229374727393
 30
0.0
 10
124.7986593146391
 20
190.6337557845898
 30
0.0
 10
124.6648927165009
 20
190.8386528385751
 30
0.0
 10
124.5234930786782
 20
191.0367888926705
 30
0.0
  0
SPLINE
  5
FF
330
1F
100
AcDbEntity
  8
_U+30EC_U+30A4_U+30E4_U+30FC 1
 62
     7
370
    25
100
AcDbSpline
210
0.0
220
0.0
230
1.0
 70
     8
 71
     3
 72
    29
 73
    25
 74
     0
 42
0.0000000001
 43
0.0000000001
 12
1.0
 22
0.0
 32
0.0
 13
1.0
 23
0.0
 33
0.0
 40
0.0
 40
0.0
 40
0.0
 40
0.0
 40
1.0
 40
1.0
 40
1.0
 40
2.0
 40
2.0
 40
2.0
 40
3.0
 40
3.0
 40
3.0
 40
4.0
 40
4.0
 40
4.0
 40
5.0
 40
5.0
 40
5.0
 40
6.0
 40
6.0
 40
6.0
 40
7.0
 40
7.0
 40
7.0
 40
8.0
 40
8.0
 40
8.0
 40
8.0
 10
125.221996954236
 20
188.4121213653861
 30
0.0
 10
125.221996954236
 20
188.4121213653861
 30
0.0
 10
125.221996954236
 20
188.4332871707736
 30
0.0
 10
125.221996954236
 20
188.4332871707736
 30
0.0
 10
125.2363909938103
 20
188.4612139760509
 30
0.0
 10
125.2499237595133
 20
188.5103281185625
 30
0.0
 10
125.264328565011
 20
188.5814478084862
 30
0.0
 10
125.2922661362117
 20
188.6373229508876
 30
0.0
 10
125.3134319415992
 20
188.7008203670501
 30
0.0
 10
125.3278259811735
 20
188.7719400569737
 30
0.0
 10
125.3422200207478
 20
188.842198473026
 30
0.0
 10
125.348991786561
 20
188.926861694576
 30
0.0
 10
125.348991786561
 20
189.0259512534705
 30
0.0
 10
125.3633858261353
 20
189.1241580066469
 30
0.0
 10
125.3701575919485
 20
189.2164435019581
 30
0.0
 10
125.3701575919485
 20
189.3011067235081
 30
0.0
 10
125.3701575919485
 20
189.3857699450581
 30
0.0
 10
125.3633858261353
 20
189.4560283611104
 30
0.0
 10
125.348991786561
 20
189.5127863092299
 30
0.0
 10
125.348991786561
 20
189.5686614516313
 30
0.0
 10
125.3345977469867
 20
189.6253763360572
 30
0.0
 10
125.306660175786
 20
189.6821127523299
 30
0.0
 10
125.2922661362117
 20
189.7244443631049
 30
0.0
 10
125.2787226045853
 20
189.7667759738799
 30
0.0
 10
125.264328565011
 20
189.8091075846549
 30
0.0
  0
POLYLINE
  5
100
330
1F
100
AcDbEntity
  8
_U+30EC_U+30A4_U+30E4_U+30FC 1
 62
     7
370
    25
100
AcDb2dPolyline
 66
     1
 10
0.0
 20
0.0
 30
0.0
  0
VERTEX
  5
101
330
100
100
AcDbEntity
  8
_U+30EC_U+30A4_U+30E4_U+30FC 1
 62
     7
370
    25
100
AcDbVertex
100
AcDb2dVertex
 10
124.6504879110032
 20
186.8457871711705
 30
0.0
  0
VERTEX
  5
102
330
100
100
AcDbEntity
  8
_U+30EC_U+30A4_U+30E4_U+30FC 1
 62
     7
370
    25
100
AcDbVertex
100
AcDb2dVertex
 10
125.221996954236
 20
188.4121213653861
 30
0.0
  0
SEQEND
  5
103
330
100
100
AcDbEntity
  8
_U+30EC_U+30A4_U+30E4_U+30FC 1
 62
     7
370
    25
  0
POLYLINE
  5
104
330
1F
100
AcDbEntity
  8
_U+30EC_U+30A4_U+30E4_U+30FC 1
 62
     7
370
    25
100
AcDb2dPolyline
 66
     1
 10
0.0
 20
0.0
 30
0.0
  0
VERTEX
  5
105
330
104
100
AcDbEntity
  8
_U+30EC_U+30A4_U+30E4_U+30FC 1
 62
     7
370
    25
100
AcDbVertex
100
AcDb2dVertex
 10
123.9519948013688
 20
192.9841075838612
 30
0.0
  0
VERTEX
  5
106
330
104
100
AcDbEntity
  8
_U+30EC_U+30A4_U+30E4_U+30FC 1
 62
     7
370
    25
100
AcDbVertex
100
AcDb2dVertex
 10
123.6768285654078
 20
192.8994443623112
 30
0.0
  0
SEQEND
  5
107
330
104
100
AcDbEntity
  8
_U+30EC_U+30A4_U+30E4_U+30FC 1
 62
     7
370
    25
  0
SPLINE
  5
108
330
1F
100
AcDbEntity
  8
_U+30EC_U+30A4_U+30E4_U+30FC 1
 62
     7
370
    25
100
AcDbSpline
210
0.0
220
0.0
230
1.0
 70
     8
 71
     3
 72
    26
 73
    22
 74
     0
 42
0.0000000001
 43
0.0000000001
 12
1.0
 22
0.0
 32
0.0
 13
1.0
 23
0.0
 33
0.0
 40
0.0
 40
0.0
 40
0.0
 40
0.0
 40
1.0
 40
1.0
 40
1.0
 40
2.0
 40
2.0
 40
2.0
 40
3.0
 40
3.0
 40
3.0
 40
4.0
 40
4.0
 40
4.0
 40
5.0
 40
5.0
 40
5.0
 40
6.0
 40
6.0
 40
6.0
 40
7.0
 40
7.0
 40
7.0
 40
7.0
 10
124.0366580229188
 20
191.184949530383
 30
0.0
 10
124.0366580229188
 20
191.184949530383
 30
0.0
 10
124.0298862571056
 20
191.184949530383
 30
0.0
 10
124.0154922175313
 20
191.184949530383
 30
0.0
 10
124.0154922175313
 20
191.1984930620094
 30
0.0
 10
124.0087204517181
 20
191.2061153357705
 30
0.0
 10
123.9943264121438
 20
191.2061153357705
 30
0.0
 10
123.9799323725695
 20
191.2061153357705
 30
0.0
 10
123.9663888409431
 20
191.1984930620094
 30
0.0
 10
123.9519948013688
 20
191.184949530383
 30
0.0
 10
123.9519948013688
 20
191.184949530383
 30
0.0
 10
123.9452230355556
 20
191.184949530383
 30
0.0
 10
123.9308289959813
 20
191.184949530383
 30
0.0
 10
123.9164241904836
 20
191.1705447248853
 30
0.0
 10
123.9096631905938
 20
191.1637837249955
 30
0.0
 10
123.9096631905938
 20
191.1637837249955
 30
0.0
 10
123.8952583850961
 20
191.1493789194978
 30
0.0
 10
123.8817256193931
 20
191.142617919608
 30
0.0
 10
123.8673208138954
 20
191.142617919608
 30
0.0
 10
123.8529267743211
 20
191.1282131141103
 30
0.0
 10
123.8461550085079
 20
191.1214521142205
 30
0.0
 10
123.8461550085079
 20
191.1214521142205
 30
0.0
  0
POLYLINE
  5
109
330
1F
100
AcDbEntity
  8
_U+30EC_U+30A4_U+30E4_U+30FC 1
 62
     7
370
    25
100
AcDb2dPolyline
 66
     1
 10
0.0
 20
0.0
 30
0.0
  0
VERTEX
  5
10A
330
109
100
AcDbEntity
  8
_U+30EC_U+30A4_U+30E4_U+30FC 1
 62
     7
370
    25
100
AcDbVertex
100
AcDb2dVertex
 10
125.221996954236
 20
190.3594400565768
 30
0.0
  0
VERTEX
  5
10B
330
109
100
AcDbEntity
  8
_U+30EC_U+30A4_U+30E4_U+30FC 1
 62
     7
370
    25
100
AcDbVertex
100
AcDb2dVertex
 10
125.5183289955844
 20
190.4229374727393
 30
0.0
  0
SEQEND
  5
10C
330
109
100
AcDbEntity
  8
_U+30EC_U+30A4_U+30E4_U+30FC 1
 62
     7
370
    25
  0
SPLINE
  5
10D
330
1F
100
AcDbEntity
  8
_U+30EC_U+30A4_U+30E4_U+30FC 1
 62
     7
370
    25
100
AcDbSpline
210
0.0
220
0.0
230
1.0
 70
     8
 71
     3
 72
    11
 73
     7
 74
     0
 42
0.0000000001
 43
0.0000000001
 12
1.0
 22
0.0
 32
0.0
 13
1.0
 23
0.0
 33
0.0
 40
0.0
 40
0.0
 40
0.0
 40
0.0
 40
1.0
 40
1.0
 40
1.0
 40
2.0
 40
2.0
 40
2.0
 40
2.0
 10
125.221996954236
 20
190.3594400565768
 30
0.0
 10
125.0247221740118
 20
190.8098647594265
 30
0.0
 10
124.7986593146391
 20
191.2484469465455
 30
0.0
 10
124.5446588840657
 20
191.6717845861424
 30
0.0
 10
124.2771041559425
 20
192.1086442255188
 30
0.0
 10
123.9867041383827
 20
192.5184383334893
 30
0.0
 10
123.6768285654078
 20
192.8994443623112
 30
0.0
  0
SPLINE
  5
10E
330
1F
100
AcDbEntity
  8
_U+30EC_U+30A4_U+30E4_U+30FC 1
 62
     7
370
    25
100
AcDbSpline
210
0.0
220
0.0
230
1.0
 70
     8
 71
     3
 72
    11
 73
     7
 74
     0
 42
0.0000000001
 43
0.0000000001
 12
1.0
 22
0.0
 32
0.0
 13
1.0
 23
0.0
 33
0.0
 40
0.0
 40
0.0
 40
0.0
 40
0.0
 40
1.0
 40
1.0
 40
1.0
 40
2.0
 40
2.0
 40
2.0
 40
2.0
 10
152.2094861815657
 20
157.5934383422209
 30
0.0
 10
152.2509780503162
 20
157.9117866969044
 30
0.0
 10
152.2069454236453
 20
158.2335263174566
 30
0.0
 10
152.0824913492407
 20
158.5247768429643
 30
0.0
 10
151.958037274836
 20
158.8151876264475
 30
0.0
 10
151.7607517286885
 20
159.0640957752568
 30
0.0
 10
151.5109930719313
 20
159.2444465239096
 30
0.0
  0
POLYLINE
  5
10F
330
1F
100
AcDbEntity
  8
_U+30EC_U+30A4_U+30E4_U+30FC 1
 62
     7
370
    25
100
AcDb2dPolyline
 66
     1
 10
0.0
 20
0.0
 30
0.0
  0
VERTEX
  5
110
330
10F
100
AcDbEntity
  8
_U+30EC_U+30A4_U+30E4_U+30FC 1
 62
     7
370
    25
100
AcDbVertex
100
AcDb2dVertex
 10
147.9761528492907
 20
153.4236131920315
 30
0.0
  0
VERTEX
  5
111
330
10F
100
AcDbEntity
  8
_U+30EC_U+30A4_U+30E4_U+30FC 1
 62
     7
370
    25
100
AcDbVertex
100
AcDb2dVertex
 10
148.0608268367641
 20
153.3812708153331
 30
0.0
  0
VERTEX
  5
112
330
10F
100
AcDbEntity
  8
_U+30EC_U+30A4_U+30E4_U+30FC 1
 62
     7
370
    25
100
AcDbVertex
100
AcDb2dVertex
 10
148.4418220996625
 20
153.2542759830081
 30
0.0
  0
VERTEX
  5
113
330
10F
100
AcDbEntity
  8
_U+30EC_U+30A4_U+30E4_U+30FC 1
 62
     7
370
    25
100
AcDbVertex
100
AcDb2dVertex
 10
148.8651597392594
 20
153.2542759830081
 30
0.0
  0
VERTEX
  5
114
330
10F
100
AcDbEntity
  8
_U+30EC_U+30A4_U+30E4_U+30FC 1
 62
     7
370
    25
100
AcDbVertex
100
AcDb2dVertex
 10
149.3096631842438
 20
153.3601050099459
 30
0.0
  0
VERTEX
  5
115
330
10F
100
AcDbEntity
  8
_U+30EC_U+30A4_U+30E4_U+30FC 1
 62
     7
370
    25
100
AcDbVertex
100
AcDb2dVertex
 10
149.7753216686922
 20
153.571773829744
 30
0.0
  0
VERTEX
  5
116
330
10F
100
AcDbEntity
  8
_U+30EC_U+30A4_U+30E4_U+30FC 1
 62
     7
370
    25
100
AcDbVertex
100
AcDb2dVertex
 10
150.2409909190641
 20
153.8892716764803
 30
0.0
  0
VERTEX
  5
117
330
10F
100
AcDbEntity
  8
_U+30EC_U+30A4_U+30E4_U+30FC 1
 62
     7
370
    25
100
AcDbVertex
100
AcDb2dVertex
 10
150.6854943640485
 20
154.2914435106893
 30
0.0
  0
VERTEX
  5
118
330
10F
100
AcDbEntity
  8
_U+30EC_U+30A4_U+30E4_U+30FC 1
 62
     7
370
    25
100
AcDbVertex
100
AcDb2dVertex
 10
151.1088212377219
 20
154.778278566449
 30
0.0
  0
VERTEX
  5
119
330
10F
100
AcDbEntity
  8
_U+30EC_U+30A4_U+30E4_U+30FC 1
 62
     7
370
    25
100
AcDbVertex
100
AcDb2dVertex
 10
151.4686614611563
 20
155.3074452329834
 30
0.0
  0
VERTEX
  5
11A
330
10F
100
AcDbEntity
  8
_U+30EC_U+30A4_U+30E4_U+30FC 1
 62
     7
370
    25
100
AcDbVertex
100
AcDb2dVertex
 10
151.7649935025047
 20
155.8789435102924
 30
0.0
  0
VERTEX
  5
11B
330
10F
100
AcDbEntity
  8
_U+30EC_U+30A4_U+30E4_U+30FC 1
 62
     7
370
    25
100
AcDbVertex
100
AcDb2dVertex
 10
151.9978281276907
 20
156.4504417876021
 30
0.0
  0
VERTEX
  5
11C
330
10F
100
AcDbEntity
  8
_U+30EC_U+30A4_U+30E4_U+30FC 1
 62
     7
370
    25
100
AcDbVertex
100
AcDb2dVertex
 10
152.1459887654032
 20
157.0431058702987
 30
0.0
  0
VERTEX
  5
11D
330
10F
100
AcDbEntity
  8
_U+30EC_U+30A4_U+30E4_U+30FC 1
 62
     7
370
    25
100
AcDbVertex
100
AcDb2dVertex
 10
152.2094861815657
 20
157.5934383422209
 30
0.0
  0
SEQEND
  5
11E
330
10F
100
AcDbEntity
  8
_U+30EC_U+30A4_U+30E4_U+30FC 1
 62
     7
370
    25
  0
POLYLINE
  5
11F
330
1F
100
AcDbEntity
  8
_U+30EC_U+30A4_U+30E4_U+30FC 1
 62
     7
370
    25
100
AcDb2dPolyline
 66
     1
 10
0.0
 20
0.0
 30
0.0
  0
VERTEX
  5
120
330
11F
100
AcDbEntity
  8
_U+30EC_U+30A4_U+30E4_U+30FC 1
 62
     7
370
    25
100
AcDbVertex
100
AcDb2dVertex
 10
77.19483051489455
 20
188.4967845869361
 30
0.0
  0
VERTEX
  5
121
330
11F
100
AcDbEntity
  8
_U+30EC_U+30A4_U+30E4_U+30FC 1
 62
     7
370
    25
100
AcDbVertex
100
AcDb2dVertex
 10
77.23716212566956
 20
189.2164435019581
 30
0.0
  0
VERTEX
  5
122
330
11F
100
AcDbEntity
  8
_U+30EC_U+30A4_U+30E4_U+30FC 1
 62
     7
370
    25
100
AcDbVertex
100
AcDb2dVertex
 10
77.42765975711879
 20
190.1689478080893
 30
0.0
  0
VERTEX
  5
123
330
11F
100
AcDbEntity
  8
_U+30EC_U+30A4_U+30E4_U+30FC 1
 62
     7
370
    25
100
AcDbVertex
100
AcDb2dVertex
 10
77.72399718142893
 20
191.100286308833
 30
0.0
  0
VERTEX
  5
124
330
11F
100
AcDbEntity
  8
_U+30EC_U+30A4_U+30E4_U+30FC 1
 62
     7
370
    25
100
AcDbVertex
100
AcDb2dVertex
 10
78.14732943806408
 20
192.0104374723425
 30
0.0
  0
VERTEX
  5
125
330
11F
100
AcDbEntity
  8
_U+30EC_U+30A4_U+30E4_U+30FC 1
 62
     7
370
    25
100
AcDbVertex
100
AcDb2dVertex
 10
78.67649610459846
 20
192.8994443623112
 30
0.0
  0
VERTEX
  5
126
330
11F
100
AcDbEntity
  8
_U+30EC_U+30A4_U+30E4_U+30FC 1
 62
     7
370
    25
100
AcDbVertex
100
AcDb2dVertex
 10
79.31149718103205
 20
193.7672854468924
 30
0.0
  0
VERTEX
  5
127
330
11F
100
AcDbEntity
  8
_U+30EC_U+30A4_U+30E4_U+30FC 1
 62
     7
370
    25
100
AcDbVertex
100
AcDb2dVertex
 10
80.07349308979066
 20
194.6139391942393
 30
0.0
  0
VERTEX
  5
128
330
11F
100
AcDbEntity
  8
_U+30EC_U+30A4_U+30E4_U+30FC 1
 62
     7
370
    25
100
AcDbVertex
100
AcDb2dVertex
 10
80.94132879141019
 20
195.418282862658
 30
0.0
  0
VERTEX
  5
129
330
11F
100
AcDbEntity
  8
_U+30EC_U+30A4_U+30E4_U+30FC 1
 62
     7
370
    25
100
AcDbVertex
100
AcDb2dVertex
 10
81.89382771457971
 20
196.1802733884549
 30
0.0
  0
VERTEX
  5
12A
330
11F
100
AcDbEntity
  8
_U+30EC_U+30A4_U+30E4_U+30FC 1
 62
     7
370
    25
100
AcDbVertex
100
AcDb2dVertex
 10
82.95216104764846
 20
196.9211196407111
 30
0.0
  0
VERTEX
  5
12B
330
11F
100
AcDbEntity
  8
_U+30EC_U+30A4_U+30E4_U+30FC 1
 62
     7
370
    25
100
AcDbVertex
100
AcDb2dVertex
 10
84.11632879061644
 20
197.598446944958
 30
0.0
  0
VERTEX
  5
12C
330
11F
100
AcDbEntity
  8
_U+30EC_U+30A4_U+30E4_U+30FC 1
 62
     7
370
    25
100
AcDbVertex
100
AcDb2dVertex
 10
85.3439939497469
 20
198.2334426384299
 30
0.0
  0
VERTEX
  5
12D
330
11F
100
AcDbEntity
  8
_U+30EC_U+30A4_U+30E4_U+30FC 1
 62
     7
370
    25
100
AcDbVertex
100
AcDb2dVertex
 10
86.65632771338909
 20
198.8049409157393
 30
0.0
  0
VERTEX
  5
12E
330
11F
100
AcDbEntity
  8
_U+30EC_U+30A4_U+30E4_U+30FC 1
 62
     7
370
    25
100
AcDbVertex
100
AcDb2dVertex
 10
88.05333008154298
 20
199.3341075822737
 30
0.0
  0
VERTEX
  5
12F
330
11F
100
AcDbEntity
  8
_U+30EC_U+30A4_U+30E4_U+30FC 1
 62
     7
370
    25
100
AcDbVertex
100
AcDb2dVertex
 10
89.51382986585939
 20
199.7997768326456
 30
0.0
  0
VERTEX
  5
130
330
11F
100
AcDbEntity
  8
_U+30EC_U+30A4_U+30E4_U+30FC 1
 62
     7
370
    25
100
AcDbVertex
100
AcDb2dVertex
 10
91.01665587798911
 20
200.2019486668549
 30
0.0
  0
VERTEX
  5
131
330
11F
100
AcDbEntity
  8
_U+30EC_U+30A4_U+30E4_U+30FC 1
 62
     7
370
    25
100
AcDbVertex
100
AcDb2dVertex
 10
92.58299007220474
 20
200.5617888902893
 30
0.0
  0
VERTEX
  5
132
330
11F
100
AcDbEntity
  8
_U+30EC_U+30A4_U+30E4_U+30FC 1
 62
     7
370
    25
100
AcDbVertex
100
AcDb2dVertex
 10
94.19165587719536
 20
200.8369443603268
 30
0.0
  0
VERTEX
  5
133
330
11F
100
AcDbEntity
  8
_U+30EC_U+30A4_U+30E4_U+30FC 1
 62
     7
370
    25
100
AcDbVertex
100
AcDb2dVertex
 10
95.8426640588844
 20
201.0486024142018
 30
0.0
  0
VERTEX
  5
134
330
11F
100
AcDbEntity
  8
_U+30EC_U+30A4_U+30E4_U+30FC 1
 62
     7
370
    25
100
AcDbVertex
100
AcDb2dVertex
 10
97.51482728003754
 20
201.2179503891487
 30
0.0
  0
VERTEX
  5
135
330
11F
100
AcDbEntity
  8
_U+30EC_U+30A4_U+30E4_U+30FC 1
 62
     7
370
    25
100
AcDbVertex
100
AcDb2dVertex
 10
99.20815630657818
 20
201.3026136106987
 30
0.0
  0
VERTEX
  5
136
330
11F
100
AcDbEntity
  8
_U+30EC_U+30A4_U+30E4_U+30FC 1
 62
     7
370
    25
100
AcDbVertex
100
AcDb2dVertex
 10
100.9014960990422
 20
201.3237794160862
 30
0.0
  0
VERTEX
  5
137
330
11F
100
AcDbEntity
  8
_U+30EC_U+30A4_U+30E4_U+30FC 1
 62
     7
370
    25
100
AcDbVertex
100
AcDb2dVertex
 10
102.6159909309704
 20
201.2602819999236
 30
0.0
  0
VERTEX
  5
138
330
11F
100
AcDbEntity
  8
_U+30EC_U+30A4_U+30E4_U+30FC 1
 62
     7
370
    25
100
AcDbVertex
100
AcDb2dVertex
 10
104.3093307234344
 20
201.1544529729861
 30
0.0
  0
VERTEX
  5
139
330
11F
100
AcDbEntity
  8
_U+30EC_U+30A4_U+30E4_U+30FC 1
 62
     7
370
    25
100
AcDbVertex
100
AcDb2dVertex
 10
106.002659749975
 20
200.9639391926518
 30
0.0
  0
VERTEX
  5
13A
330
11F
100
AcDbEntity
  8
_U+30EC_U+30A4_U+30E4_U+30FC 1
 62
     7
370
    25
100
AcDbVertex
100
AcDb2dVertex
 10
107.6748229711282
 20
200.7311153333893
 30
0.0
  0
VERTEX
  5
13B
330
11F
100
AcDbEntity
  8
_U+30EC_U+30A4_U+30E4_U+30FC 1
 62
     7
370
    25
100
AcDbVertex
100
AcDb2dVertex
 10
108.3521610412985
 20
200.6041205010642
 30
0.0
  0
SEQEND
  5
13C
330
11F
100
AcDbEntity
  8
_U+30EC_U+30A4_U+30E4_U+30FC 1
 62
     7
370
    25
  0
SPLINE
  5
13D
330
1F
100
AcDbEntity
  8
_U+30EC_U+30A4_U+30E4_U+30FC 1
 62
     7
370
    25
100
AcDbSpline
210
0.0
220
0.0
230
1.0
 70
     8
 71
     3
 72
    11
 73
     7
 74
     0
 42
0.0000000001
 43
0.0000000001
 12
1.0
 22
0.0
 32
0.0
 13
1.0
 23
0.0
 33
0.0
 40
0.0
 40
0.0
 40
0.0
 40
0.0
 40
1.0
 40
1.0
 40
1.0
 40
2.0
 40
2.0
 40
2.0
 40
2.0
 10
113.0511636239453
 20
199.4187708038237
 30
0.0
 10
112.3602712562253
 20
199.6439939211719
 30
0.0
 10
111.6541558728297
 20
199.8488694433103
 30
0.0
 10
110.9344969578078
 20
200.0326222237549
 30
0.0
 10
110.2292213164368
 20
200.2154921984813
 30
0.0
 10
109.5163234013047
 20
200.3780361098447
 30
0.0
 10
108.7966537203594
 20
200.5194357476675
 30
0.0
  0
SPLINE
  5
13E
330
1F
100
AcDbEntity
  8
_U+30EC_U+30A4_U+30E4_U+30FC 1
 62
     7
370
    25
100
AcDbSpline
210
0.0
220
0.0
230
1.0
 70
     8
 71
     3
 72
    11
 73
     7
 74
     0
 42
0.0000000001
 43
0.0000000001
 12
1.0
 22
0.0
 32
0.0
 13
1.0
 23
0.0
 33
0.0
 40
0.0
 40
0.0
 40
0.0
 40
0.0
 40
1.0
 40
1.0
 40
1.0
 40
2.0
 40
2.0
 40
2.0
 40
2.0
 10
125.221996954236
 20
189.9149366115925
 30
0.0
 10
125.0247221740118
 20
190.4212579886903
 30
0.0
 10
124.791037040878
 20
190.9173948022598
 30
0.0
 10
124.5234930786782
 20
191.396607584258
 30
0.0
 10
124.2559383505549
 20
191.8749806242318
 30
0.0
 10
123.9511442934209
 20
192.3355468269161
 30
0.0
 10
123.6133203833219
 20
192.7724495299861
 30
0.0
  0
SPLINE
  5
13F
330
1F
100
AcDbEntity
  8
_U+30EC_U+30A4_U+30E4_U+30FC 1
 62
     7
370
    25
100
AcDbSpline
210
0.0
220
0.0
230
1.0
 70
     8
 71
     3
 72
    11
 73
     7
 74
     0
 42
0.0000000001
 43
0.0000000001
 12
1.0
 22
0.0
 32
0.0
 13
1.0
 23
0.0
 33
0.0
 40
0.0
 40
0.0
 40
0.0
 40
0.0
 40
1.0
 40
1.0
 40
1.0
 40
2.0
 40
2.0
 40
2.0
 40
2.0
 10
125.6664896332969
 20
187.0574452250455
 30
0.0
 10
125.6808836728712
 20
187.4231851744984
 30
0.0
 10
125.6664896332969
 20
187.7915089455651
 30
0.0
 10
125.6241580225219
 20
188.1581101688893
 30
0.0
 10
125.5818264117469
 20
188.5382549238398
 30
0.0
 10
125.5107067218233
 20
188.9056958891885
 30
0.0
 10
125.4124892027235
 20
189.258775112733
 30
0.0
  0
POLYLINE
  5
140
330
1F
100
AcDbEntity
  8
_U+30EC_U+30A4_U+30E4_U+30FC 1
 62
     7
370
    25
100
AcDb2dPolyline
 66
     1
 10
0.0
 20
0.0
 30
0.0
  0
VERTEX
  5
141
330
140
100
AcDbEntity
  8
_U+30EC_U+30A4_U+30E4_U+30FC 1
 62
     7
370
    25
100
AcDbVertex
100
AcDb2dVertex
 10
78.67649610459846
 20
187.3326222269299
 30
0.0
  0
VERTEX
  5
142
330
140
100
AcDbEntity
  8
_U+30EC_U+30A4_U+30E4_U+30FC 1
 62
     7
370
    25
100
AcDbVertex
100
AcDb2dVertex
 10
79.31149718103205
 20
188.1792759742768
 30
0.0
  0
VERTEX
  5
143
330
140
100
AcDbEntity
  8
_U+30EC_U+30A4_U+30E4_U+30FC 1
 62
     7
370
    25
100
AcDbVertex
100
AcDb2dVertex
 10
80.09466427813986
 20
189.004785448083
 30
0.0
  0
VERTEX
  5
144
330
140
100
AcDbEntity
  8
_U+30EC_U+30A4_U+30E4_U+30FC 1
 62
     7
370
    25
100
AcDbVertex
100
AcDb2dVertex
 10
80.98366040218518
 20
189.8091075846549
 30
0.0
  0
VERTEX
  5
145
330
140
100
AcDbEntity
  8
_U+30EC_U+30A4_U+30E4_U+30FC 1
 62
     7
370
    25
100
AcDbVertex
100
AcDb2dVertex
 10
81.97849631909142
 20
190.5711196422986
 30
0.0
  0
VERTEX
  5
146
330
140
100
AcDbEntity
  8
_U+30EC_U+30A4_U+30E4_U+30FC 1
 62
     7
370
    25
100
AcDbVertex
100
AcDb2dVertex
 10
83.05799545754768
 20
191.269612751933
 30
0.0
  0
VERTEX
  5
147
330
140
100
AcDbEntity
  8
_U+30EC_U+30A4_U+30E4_U+30FC 1
 62
     7
370
    25
100
AcDbVertex
100
AcDb2dVertex
 10
84.24332900590315
 20
191.94694005618
 30
0.0
  0
VERTEX
  5
148
330
140
100
AcDbEntity
  8
_U+30EC_U+30A4_U+30E4_U+30FC 1
 62
     7
370
    25
100
AcDbVertex
100
AcDb2dVertex
 10
85.49215997042113
 20
192.5607699442643
 30
0.0
  0
VERTEX
  5
149
330
140
100
AcDbEntity
  8
_U+30EC_U+30A4_U+30E4_U+30FC 1
 62
     7
370
    25
100
AcDbVertex
100
AcDb2dVertex
 10
86.82565953945081
 20
193.1322682215737
 30
0.0
  0
VERTEX
  5
14A
330
140
100
AcDbEntity
  8
_U+30EC_U+30A4_U+30E4_U+30FC 1
 62
     7
370
    25
100
AcDbVertex
100
AcDb2dVertex
 10
88.24382771299221
 20
193.6402690827206
 30
0.0
  0
VERTEX
  5
14B
330
140
100
AcDbEntity
  8
_U+30EC_U+30A4_U+30E4_U+30FC 1
 62
     7
370
    25
100
AcDbVertex
100
AcDb2dVertex
 10
89.72549330269612
 20
194.1059383330924
 30
0.0
  0
VERTEX
  5
14C
330
140
100
AcDbEntity
  8
_U+30EC_U+30A4_U+30E4_U+30FC 1
 62
     7
370
    25
100
AcDbVertex
100
AcDb2dVertex
 10
91.24949050317504
 20
194.4869443619143
 30
0.0
  0
VERTEX
  5
14D
330
140
100
AcDbEntity
  8
_U+30EC_U+30A4_U+30E4_U+30FC 1
 62
     7
370
    25
100
AcDbVertex
100
AcDb2dVertex
 10
92.83699050277816
 20
194.8256187799611
 30
0.0
  0
VERTEX
  5
14E
330
140
100
AcDbEntity
  8
_U+30EC_U+30A4_U+30E4_U+30FC 1
 62
     7
370
    25
100
AcDbVertex
100
AcDb2dVertex
 10
94.4668221131563
 20
195.1007742499987
 30
0.0
  0
VERTEX
  5
14F
330
140
100
AcDbEntity
  8
_U+30EC_U+30A4_U+30E4_U+30FC 1
 62
     7
370
    25
100
AcDbVertex
100
AcDb2dVertex
 10
96.11783029484533
 20
195.291288030333
 30
0.0
  0
VERTEX
  5
150
330
140
100
AcDbEntity
  8
_U+30EC_U+30A4_U+30E4_U+30FC 1
 62
     7
370
    25
100
AcDbVertex
100
AcDb2dVertex
 10
97.81115932138597
 20
195.4394486680455
 30
0.0
  0
VERTEX
  5
151
330
140
100
AcDbEntity
  8
_U+30EC_U+30A4_U+30E4_U+30FC 1
 62
     7
370
    25
100
AcDbVertex
100
AcDb2dVertex
 10
99.50448834792661
 20
195.502946084208
 30
0.0
  0
VERTEX
  5
152
330
140
100
AcDbEntity
  8
_U+30EC_U+30A4_U+30E4_U+30FC 1
 62
     7
370
    25
100
AcDbVertex
100
AcDb2dVertex
 10
101.2189939457782
 20
195.502946084208
 30
0.0
  0
VERTEX
  5
153
330
140
100
AcDbEntity
  8
_U+30EC_U+30A4_U+30E4_U+30FC 1
 62
     7
370
    25
100
AcDbVertex
100
AcDb2dVertex
 10
102.9334887777063
 20
195.4394486680455
 30
0.0
  0
VERTEX
  5
154
330
140
100
AcDbEntity
  8
_U+30EC_U+30A4_U+30E4_U+30FC 1
 62
     7
370
    25
100
AcDbVertex
100
AcDb2dVertex
 10
104.6268285701703
 20
195.291288030333
 30
0.0
  0
VERTEX
  5
155
330
140
100
AcDbEntity
  8
_U+30EC_U+30A4_U+30E4_U+30FC 1
 62
     7
370
    25
100
AcDbVertex
100
AcDb2dVertex
 10
106.320157596711
 20
195.1007742499987
 30
0.0
  0
VERTEX
  5
156
330
140
100
AcDbEntity
  8
_U+30EC_U+30A4_U+30E4_U+30FC 1
 62
     7
370
    25
100
AcDbVertex
100
AcDb2dVertex
 10
107.9711550124766
 20
194.8256187799611
 30
0.0
  0
VERTEX
  5
157
330
140
100
AcDbEntity
  8
_U+30EC_U+30A4_U+30E4_U+30FC 1
 62
     7
370
    25
100
AcDbVertex
100
AcDb2dVertex
 10
108.2251554430501
 20
194.7832871691861
 30
0.0
  0
SEQEND
  5
158
330
140
100
AcDbEntity
  8
_U+30EC_U+30A4_U+30E4_U+30FC 1
 62
     7
370
    25
  0
POLYLINE
  5
159
330
1F
100
AcDbEntity
  8
_U+30EC_U+30A4_U+30E4_U+30FC 1
 62
     7
370
    25
100
AcDb2dPolyline
 66
     1
 10
0.0
 20
0.0
 30
0.0
  0
VERTEX
  5
15A
330
159
100
AcDbEntity
  8
_U+30EC_U+30A4_U+30E4_U+30FC 1
 62
     7
370
    25
100
AcDbVertex
100
AcDb2dVertex
 10
112.41615716455
 20
193.7461196415049
 30
0.0
  0
VERTEX
  5
15B
330
159
100
AcDbEntity
  8
_U+30EC_U+30A4_U+30E4_U+30FC 1
 62
     7
370
    25
100
AcDbVertex
100
AcDb2dVertex
 10
112.7124892058985
 20
193.6614348881081
 30
0.0
  0
VERTEX
  5
15C
330
159
100
AcDbEntity
  8
_U+30EC_U+30A4_U+30E4_U+30FC 1
 62
     7
370
    25
100
AcDbVertex
100
AcDb2dVertex
 10
114.0036571641532
 20
193.2169529749705
 30
0.0
  0
SEQEND
  5
15D
330
159
100
AcDbEntity
  8
_U+30EC_U+30A4_U+30E4_U+30FC 1
 62
     7
370
    25
  0
SPLINE
  5
15E
330
1F
100
AcDbEntity
  8
_U+30EC_U+30A4_U+30E4_U+30FC 1
 62
     7
370
    25
100
AcDbSpline
210
0.0
220
0.0
230
1.0
 70
     8
 71
     3
 72
    11
 73
     7
 74
     0
 42
0.0000000001
 43
0.0000000001
 12
1.0
 22
0.0
 32
0.0
 13
1.0
 23
0.0
 33
0.0
 40
0.0
 40
0.0
 40
0.0
 40
0.0
 40
1.0
 40
1.0
 40
1.0
 40
2.0
 40
2.0
 40
2.0
 40
2.0
 10
108.330995235911
 20
200.9851049980393
 30
0.0
 10
104.4075374766111
 20
201.8393810191474
 30
0.0
 10
100.3587751349584
 20
202.0180307519043
 30
0.0
 10
96.35065415410787
 20
201.5142716645737
 30
0.0
 10
92.35692721283199
 20
201.0232163668449
 30
0.0
 10
88.48005360404645
 20
199.8505704592062
 30
0.0
 10
84.87833008233673
 20
198.0429503899424
 30
0.0
  0
POLYLINE
  5
15F
330
1F
100
AcDbEntity
  8
_U+30EC_U+30A4_U+30E4_U+30FC 1
 62
     7
370
    25
100
AcDb2dPolyline
 66
     1
 10
0.0
 20
0.0
 30
0.0
  0
VERTEX
  5
160
330
15F
100
AcDbEntity
  8
_U+30EC_U+30A4_U+30E4_U+30FC 1
 62
     7
370
    25
100
AcDbVertex
100
AcDb2dVertex
 10
116.966988343561
 20
180.8767716697331
 30
0.0
  0
VERTEX
  5
161
330
15F
100
AcDbEntity
  8
_U+30EC_U+30A4_U+30E4_U+30FC 1
 62
     7
370
    25
100
AcDbVertex
100
AcDb2dVertex
 10
118.0464874820172
 20
180.1782893260221
 30
0.0
  0
VERTEX
  5
162
330
15F
100
AcDbEntity
  8
_U+30EC_U+30A4_U+30E4_U+30FC 1
 62
     7
370
    25
100
AcDbVertex
100
AcDb2dVertex
 10
119.0413233989235
 20
179.4374538396893
 30
0.0
  0
VERTEX
  5
163
330
15F
100
AcDbEntity
  8
_U+30EC_U+30A4_U+30E4_U+30FC 1
 62
     7
370
    25
100
AcDbVertex
100
AcDb2dVertex
 10
119.9303302888922
 20
178.6542867425814
 30
0.0
  0
VERTEX
  5
164
330
15F
100
AcDbEntity
  8
_U+30EC_U+30A4_U+30E4_U+30FC 1
 62
     7
370
    25
100
AcDbVertex
100
AcDb2dVertex
 10
120.7134866200766
 20
177.8287880346986
 30
0.0
  0
VERTEX
  5
165
330
15F
100
AcDbEntity
  8
_U+30EC_U+30A4_U+30E4_U+30FC 1
 62
     7
370
    25
100
AcDbVertex
100
AcDb2dVertex
 10
121.3908246902469
 20
176.9821127555049
 30
0.0
  0
VERTEX
  5
166
330
15F
100
AcDbEntity
  8
_U+30EC_U+30A4_U+30E4_U+30FC 1
 62
     7
370
    25
100
AcDbVertex
100
AcDb2dVertex
 10
121.9623229675563
 20
176.1354482422346
 30
0.0
  0
VERTEX
  5
167
330
15F
100
AcDbEntity
  8
_U+30EC_U+30A4_U+30E4_U+30FC 1
 62
     7
370
    25
100
AcDbVertex
100
AcDb2dVertex
 10
122.4068264125407
 20
175.2464521181896
 30
0.0
  0
VERTEX
  5
168
330
15F
100
AcDbEntity
  8
_U+30EC_U+30A4_U+30E4_U+30FC 1
 62
     7
370
    25
100
AcDbVertex
100
AcDb2dVertex
 10
122.7454900646641
 20
174.336279422833
 30
0.0
  0
VERTEX
  5
169
330
15F
100
AcDbEntity
  8
_U+30EC_U+30A4_U+30E4_U+30FC 1
 62
     7
370
    25
100
AcDbVertex
100
AcDb2dVertex
 10
122.9571588844625
 20
173.4261174934002
 30
0.0
  0
VERTEX
  5
16A
330
15F
100
AcDbEntity
  8
_U+30EC_U+30A4_U+30E4_U+30FC 1
 62
     7
370
    25
100
AcDbVertex
100
AcDb2dVertex
 10
123.0629879114001
 20
172.515944798044
 30
0.0
  0
VERTEX
  5
16B
330
15F
100
AcDbEntity
  8
_U+30EC_U+30A4_U+30E4_U+30FC 1
 62
     7
370
    25
100
AcDbVertex
100
AcDb2dVertex
 10
123.020656300625
 20
171.6057721026878
 30
0.0
  0
VERTEX
  5
16C
330
15F
100
AcDbEntity
  8
_U+30EC_U+30A4_U+30E4_U+30FC 1
 62
     7
370
    25
100
AcDbVertex
100
AcDb2dVertex
 10
122.8724956629125
 20
170.7167759786424
 30
0.0
  0
VERTEX
  5
16D
330
15F
100
AcDbEntity
  8
_U+30EC_U+30A4_U+30E4_U+30FC 1
 62
     7
370
    25
100
AcDbVertex
100
AcDb2dVertex
 10
122.6184952323391
 20
169.8277798545971
 30
0.0
  0
VERTEX
  5
16E
330
15F
100
AcDbEntity
  8
_U+30EC_U+30A4_U+30E4_U+30FC 1
 62
     7
370
    25
100
AcDbVertex
100
AcDb2dVertex
 10
122.2374892035172
 20
168.9387729646284
 30
0.0
  0
VERTEX
  5
16F
330
15F
100
AcDbEntity
  8
_U+30EC_U+30A4_U+30E4_U+30FC 1
 62
     7
370
    25
100
AcDbVertex
100
AcDb2dVertex
 10
121.7294883423704
 20
168.0921084513584
 30
0.0
  0
VERTEX
  5
170
330
15F
100
AcDbEntity
  8
_U+30EC_U+30A4_U+30E4_U+30FC 1
 62
     7
370
    25
100
AcDbVertex
100
AcDb2dVertex
 10
121.115658454286
 20
167.2454439380877
 30
0.0
  0
VERTEX
  5
171
330
15F
100
AcDbEntity
  8
_U+30EC_U+30A4_U+30E4_U+30FC 1
 62
     7
370
    25
100
AcDbVertex
100
AcDb2dVertex
 10
120.3959887733407
 20
166.4411110355924
 30
0.0
  0
VERTEX
  5
172
330
15F
100
AcDbEntity
  8
_U+30EC_U+30A4_U+30E4_U+30FC 1
 62
     7
370
    25
100
AcDbVertex
100
AcDb2dVertex
 10
119.5704900654579
 20
165.6791097438721
 30
0.0
  0
VERTEX
  5
173
330
15F
100
AcDbEntity
  8
_U+30EC_U+30A4_U+30E4_U+30FC 1
 62
     7
370
    25
100
AcDbVertex
100
AcDb2dVertex
 10
118.6391623306375
 20
164.9594400629268
 30
0.0
  0
VERTEX
  5
174
330
15F
100
AcDbEntity
  8
_U+30EC_U+30A4_U+30E4_U+30FC 1
 62
     7
370
    25
100
AcDbVertex
100
AcDb2dVertex
 10
117.6019948029563
 20
164.260936187369
 30
0.0
  0
VERTEX
  5
175
330
15F
100
AcDbEntity
  8
_U+30EC_U+30A4_U+30E4_U+30FC 1
 62
     7
370
    25
100
AcDbVertex
100
AcDb2dVertex
 10
116.5013298591125
 20
163.6259404938971
 30
0.0
  0
VERTEX
  5
176
330
15F
100
AcDbEntity
  8
_U+30EC_U+30A4_U+30E4_U+30FC 1
 62
     7
370
    25
100
AcDbVertex
100
AcDb2dVertex
 10
115.2948251224079
 20
163.0332764112002
 30
0.0
  0
VERTEX
  5
177
330
15F
100
AcDbEntity
  8
_U+30EC_U+30A4_U+30E4_U+30FC 1
 62
     7
370
    25
100
AcDbVertex
100
AcDb2dVertex
 10
114.0036571641532
 20
162.5041097446659
 30
0.0
  0
VERTEX
  5
178
330
15F
100
AcDbEntity
  8
_U+30EC_U+30A4_U+30E4_U+30FC 1
 62
     7
370
    25
100
AcDbVertex
100
AcDb2dVertex
 10
112.6701575951235
 20
162.0172746889065
 30
0.0
  0
VERTEX
  5
179
330
15F
100
AcDbEntity
  8
_U+30EC_U+30A4_U+30E4_U+30FC 1
 62
     7
370
    25
100
AcDbVertex
100
AcDb2dVertex
 10
111.2519948045438
 20
161.5939370493096
 30
0.0
  0
VERTEX
  5
17A
330
15F
100
AcDbEntity
  8
_U+30EC_U+30A4_U+30E4_U+30FC 1
 62
     7
370
    25
100
AcDbVertex
100
AcDb2dVertex
 10
109.7703238318782
 20
161.2341075917987
 30
0.0
  0
VERTEX
  5
17B
330
15F
100
AcDbEntity
  8
_U+30EC_U+30A4_U+30E4_U+30FC 1
 62
     7
370
    25
100
AcDbVertex
100
AcDb2dVertex
 10
108.2463212484376
 20
160.9166097450627
 30
0.0
  0
VERTEX
  5
17C
330
15F
100
AcDbEntity
  8
_U+30EC_U+30A4_U+30E4_U+30FC 1
 62
     7
370
    25
100
AcDbVertex
100
AcDb2dVertex
 10
106.7011636255328
 20
160.6837751198771
 30
0.0
  0
VERTEX
  5
17D
330
15F
100
AcDbEntity
  8
_U+30EC_U+30A4_U+30E4_U+30FC 1
 62
     7
370
    25
100
AcDbVertex
100
AcDb2dVertex
 10
105.1136636259297
 20
160.5144379108534
 30
0.0
  0
VERTEX
  5
17E
330
15F
100
AcDbEntity
  8
_U+30EC_U+30A4_U+30E4_U+30FC 1
 62
     7
370
    25
100
AcDbVertex
100
AcDb2dVertex
 10
103.4838212496285
 20
160.4086088839159
 30
0.0
  0
VERTEX
  5
17F
330
15F
100
AcDbEntity
  8
_U+30EC_U+30A4_U+30E4_U+30FC 1
 62
     7
370
    25
100
AcDbVertex
100
AcDb2dVertex
 10
101.8751554446376
 20
160.3874430785284
 30
0.0
  0
VERTEX
  5
180
330
15F
100
AcDbEntity
  8
_U+30EC_U+30A4_U+30E4_U+30FC 1
 62
     7
370
    25
100
AcDbVertex
100
AcDb2dVertex
 10
100.2241580288722
 20
160.4086088839159
 30
0.0
  0
VERTEX
  5
181
330
15F
100
AcDbEntity
  8
_U+30EC_U+30A4_U+30E4_U+30FC 1
 62
     7
370
    25
100
AcDbVertex
100
AcDb2dVertex
 10
98.61549222388129
 20
160.5144379108534
 30
0.0
  0
VERTEX
  5
182
330
15F
100
AcDbEntity
  8
_U+30EC_U+30A4_U+30E4_U+30FC 1
 62
     7
370
    25
100
AcDbVertex
100
AcDb2dVertex
 10
96.98566061350316
 20
160.6626093144893
 30
0.0
  0
VERTEX
  5
183
330
15F
100
AcDbEntity
  8
_U+30EC_U+30A4_U+30E4_U+30FC 1
 62
     7
370
    25
100
AcDbVertex
100
AcDb2dVertex
 10
95.39816061390003
 20
160.8954439396752
 30
0.0
  0
VERTEX
  5
184
330
15F
100
AcDbEntity
  8
_U+30EC_U+30A4_U+30E4_U+30FC 1
 62
     7
370
    25
100
AcDbVertex
100
AcDb2dVertex
 10
93.8318264196844
 20
161.1917759810237
 30
0.0
  0
VERTEX
  5
185
330
15F
100
AcDbEntity
  8
_U+30EC_U+30A4_U+30E4_U+30FC 1
 62
     7
370
    25
100
AcDbVertex
100
AcDb2dVertex
 10
92.3078238362438
 20
161.5516054385346
 30
0.0
  0
VERTEX
  5
186
330
15F
100
AcDbEntity
  8
_U+30EC_U+30A4_U+30E4_U+30FC 1
 62
     7
370
    25
100
AcDbVertex
100
AcDb2dVertex
 10
90.84732943488909
 20
161.9749430781315
 30
0.0
  0
VERTEX
  5
187
330
15F
100
AcDbEntity
  8
_U+30EC_U+30A4_U+30E4_U+30FC 1
 62
     7
370
    25
100
AcDbVertex
100
AcDb2dVertex
 10
89.40799545596018
 20
162.4406123285034
 30
0.0
  0
VERTEX
  5
188
330
15F
100
AcDbEntity
  8
_U+30EC_U+30A4_U+30E4_U+30FC 1
 62
     7
370
    25
100
AcDbVertex
100
AcDb2dVertex
 10
88.05333008154298
 20
162.9909448004252
 30
0.0
  0
VERTEX
  5
189
330
15F
100
AcDbEntity
  8
_U+30EC_U+30A4_U+30E4_U+30FC 1
 62
     7
370
    25
100
AcDbVertex
100
AcDb2dVertex
 10
86.7833279286758
 20
163.5624430777346
 30
0.0
  0
VERTEX
  5
18A
330
15F
100
AcDbEntity
  8
_U+30EC_U+30A4_U+30E4_U+30FC 1
 62
     7
370
    25
100
AcDbVertex
100
AcDb2dVertex
 10
85.55566276954534
 20
164.1974387712065
 30
0.0
  0
VERTEX
  5
18B
330
15F
100
AcDbEntity
  8
_U+30EC_U+30A4_U+30E4_U+30FC 1
 62
     7
370
    25
100
AcDbVertex
100
AcDb2dVertex
 10
84.43382663735238
 20
164.8959426467643
 30
0.0
  0
VERTEX
  5
18C
330
15F
100
AcDbEntity
  8
_U+30EC_U+30A4_U+30E4_U+30FC 1
 62
     7
370
    25
100
AcDbVertex
100
AcDb2dVertex
 10
83.39666449263282
 20
165.6156123277096
 30
0.0
  0
VERTEX
  5
18D
330
15F
100
AcDbEntity
  8
_U+30EC_U+30A4_U+30E4_U+30FC 1
 62
     7
370
    25
100
AcDbVertex
100
AcDb2dVertex
 10
82.46533137485079
 20
166.3776028535065
 30
0.0
  0
VERTEX
  5
18E
330
15F
100
AcDbEntity
  8
_U+30EC_U+30A4_U+30E4_U+30FC 1
 62
     7
370
    25
100
AcDbVertex
100
AcDb2dVertex
 10
81.63982728400627
 20
167.1819465219252
 30
0.0
  0
VERTEX
  5
18F
330
15F
100
AcDbEntity
  8
_U+30EC_U+30A4_U+30E4_U+30FC 1
 62
     7
370
    25
100
AcDbVertex
100
AcDb2dVertex
 10
80.89899718063518
 20
168.0074452298084
 30
0.0
  0
VERTEX
  5
190
330
15F
100
AcDbEntity
  8
_U+30EC_U+30A4_U+30E4_U+30FC 1
 62
     7
370
    25
100
AcDbVertex
100
AcDb2dVertex
 10
80.28516190958909
 20
168.8541097430784
 30
0.0
  0
VERTEX
  5
191
330
15F
100
AcDbEntity
  8
_U+30EC_U+30A4_U+30E4_U+30FC 1
 62
     7
370
    25
100
AcDbVertex
100
AcDb2dVertex
 10
79.77716104844221
 20
169.7431058671237
 30
0.0
  0
VERTEX
  5
192
330
15F
100
AcDbEntity
  8
_U+30EC_U+30A4_U+30E4_U+30FC 1
 62
     7
370
    25
100
AcDbVertex
100
AcDb2dVertex
 10
79.37499459719456
 20
170.6321127570924
 30
0.0
  0
VERTEX
  5
193
330
15F
100
AcDbEntity
  8
_U+30EC_U+30A4_U+30E4_U+30FC 1
 62
     7
370
    25
100
AcDbVertex
100
AcDb2dVertex
 10
79.09982836123362
 20
171.5211088811377
 30
0.0
  0
VERTEX
  5
194
330
15F
100
AcDbEntity
  8
_U+30EC_U+30A4_U+30E4_U+30FC 1
 62
     7
370
    25
100
AcDbVertex
100
AcDb2dVertex
 10
78.9516623405594
 20
172.4312708105706
 30
0.0
  0
VERTEX
  5
195
330
15F
100
AcDbEntity
  8
_U+30EC_U+30A4_U+30E4_U+30FC 1
 62
     7
370
    25
100
AcDbVertex
100
AcDb2dVertex
 10
78.90933072978439
 20
173.3414435059268
 30
0.0
  0
VERTEX
  5
196
330
15F
100
AcDbEntity
  8
_U+30EC_U+30A4_U+30E4_U+30FC 1
 62
     7
370
    25
100
AcDbVertex
100
AcDb2dVertex
 10
78.9939939513344
 20
174.251616201283
 30
0.0
  0
VERTEX
  5
197
330
15F
100
AcDbEntity
  8
_U+30EC_U+30A4_U+30E4_U+30FC 1
 62
     7
370
    25
100
AcDbVertex
100
AcDb2dVertex
 10
79.20566277113284
 20
175.1617888966396
 30
0.0
  0
VERTEX
  5
198
330
15F
100
AcDbEntity
  8
_U+30EC_U+30A4_U+30E4_U+30FC 1
 62
     7
370
    25
100
AcDbVertex
100
AcDb2dVertex
 10
79.52316061786878
 20
176.0507850206846
 30
0.0
  0
VERTEX
  5
199
330
15F
100
AcDbEntity
  8
_U+30EC_U+30A4_U+30E4_U+30FC 1
 62
     7
370
    25
100
AcDbVertex
100
AcDb2dVertex
 10
79.96766406285315
 20
176.9186153393427
 30
0.0
  0
VERTEX
  5
19A
330
15F
100
AcDbEntity
  8
_U+30EC_U+30A4_U+30E4_U+30FC 1
 62
     7
370
    25
100
AcDbVertex
100
AcDb2dVertex
 10
80.51799653477502
 20
177.7652798526127
 30
0.0
  0
VERTEX
  5
19B
330
15F
100
AcDbEntity
  8
_U+30EC_U+30A4_U+30E4_U+30FC 1
 62
     7
370
    25
100
AcDbVertex
100
AcDb2dVertex
 10
81.19532922198361
 20
178.569612755108
 30
0.0
  0
VERTEX
  5
19C
330
15F
100
AcDbEntity
  8
_U+30EC_U+30A4_U+30E4_U+30FC 1
 62
     7
370
    25
100
AcDbVertex
100
AcDb2dVertex
 10
81.97849631909142
 20
179.3527798522159
 30
0.0
  0
VERTEX
  5
19D
330
15F
100
AcDbEntity
  8
_U+30EC_U+30A4_U+30E4_U+30FC 1
 62
     7
370
    25
100
AcDbVertex
100
AcDb2dVertex
 10
82.84632663774926
 20
180.1147811439362
 30
0.0
  0
VERTEX
  5
19E
330
15F
100
AcDbEntity
  8
_U+30EC_U+30A4_U+30E4_U+30FC 1
 62
     7
370
    25
100
AcDbVertex
100
AcDb2dVertex
 10
83.81999674926799
 20
180.8132742535706
 30
0.0
  0
VERTEX
  5
19F
330
15F
100
AcDbEntity
  8
_U+30EC_U+30A4_U+30E4_U+30FC 1
 62
     7
370
    25
100
AcDbVertex
100
AcDb2dVertex
 10
84.89949588772424
 20
181.4906230896642
 30
0.0
  0
VERTEX
  5
1A0
330
15F
100
AcDbEntity
  8
_U+30EC_U+30A4_U+30E4_U+30FC 1
 62
     7
370
    25
100
AcDbVertex
100
AcDb2dVertex
 10
86.0636636306922
 20
182.1044529777486
 30
0.0
  0
VERTEX
  5
1A1
330
15F
100
AcDbEntity
  8
_U+30EC_U+30A4_U+30E4_U+30FC 1
 62
     7
370
    25
100
AcDbVertex
100
AcDb2dVertex
 10
87.31249459521018
 20
182.6547854496705
 30
0.0
  0
VERTEX
  5
1A2
330
15F
100
AcDbEntity
  8
_U+30EC_U+30A4_U+30E4_U+30FC 1
 62
     7
370
    25
100
AcDbVertex
100
AcDb2dVertex
 10
88.62482835885237
 20
183.1627863108174
 30
0.0
  0
VERTEX
  5
1A3
330
15F
100
AcDbEntity
  8
_U+30EC_U+30A4_U+30E4_U+30FC 1
 62
     7
370
    25
100
AcDbVertex
100
AcDb2dVertex
 10
90.00065953865706
 20
183.6284555611892
 30
0.0
  0
VERTEX
  5
1A4
330
15F
100
AcDbEntity
  8
_U+30EC_U+30A4_U+30E4_U+30FC 1
 62
     7
370
    25
100
AcDbVertex
100
AcDb2dVertex
 10
91.43999351758598
 20
184.0094400581643
 30
0.0
  0
VERTEX
  5
1A5
330
15F
100
AcDbEntity
  8
_U+30EC_U+30A4_U+30E4_U+30FC 1
 62
     7
370
    25
100
AcDbVertex
100
AcDb2dVertex
 10
92.94283029563908
 20
184.3481144762112
 30
0.0
  0
VERTEX
  5
1A6
330
15F
100
AcDbEntity
  8
_U+30EC_U+30A4_U+30E4_U+30FC 1
 62
     7
370
    25
100
AcDbVertex
100
AcDb2dVertex
 10
94.48798791854412
 20
184.6232699462487
 30
0.0
  0
VERTEX
  5
1A7
330
15F
100
AcDbEntity
  8
_U+30EC_U+30A4_U+30E4_U+30FC 1
 62
     7
370
    25
100
AcDbVertex
100
AcDb2dVertex
 10
96.05432211275942
 20
184.813783726583
 30
0.0
  0
VERTEX
  5
1A8
330
15F
100
AcDbEntity
  8
_U+30EC_U+30A4_U+30E4_U+30FC 1
 62
     7
370
    25
100
AcDbVertex
100
AcDb2dVertex
 10
97.66298791775037
 20
184.9619443642955
 30
0.0
  0
VERTEX
  5
1A9
330
15F
100
AcDbEntity
  8
_U+30EC_U+30A4_U+30E4_U+30FC 1
 62
     7
370
    25
100
AcDbVertex
100
AcDb2dVertex
 10
99.29283029405158
 20
185.0254417804581
 30
0.0
  0
VERTEX
  5
1AA
330
15F
100
AcDbEntity
  8
_U+30EC_U+30A4_U+30E4_U+30FC 1
 62
     7
370
    25
100
AcDbVertex
100
AcDb2dVertex
 10
100.9226619044297
 20
185.0254417804581
 30
0.0
  0
VERTEX
  5
1AB
330
15F
100
AcDbEntity
  8
_U+30EC_U+30A4_U+30E4_U+30FC 1
 62
     7
370
    25
100
AcDbVertex
100
AcDb2dVertex
 10
102.5524935148078
 20
184.9619443642955
 30
0.0
  0
VERTEX
  5
1AC
330
15F
100
AcDbEntity
  8
_U+30EC_U+30A4_U+30E4_U+30FC 1
 62
     7
370
    25
100
AcDbVertex
100
AcDb2dVertex
 10
104.1611593197985
 20
184.8349495319705
 30
0.0
  0
VERTEX
  5
1AD
330
15F
100
AcDbEntity
  8
_U+30EC_U+30A4_U+30E4_U+30FC 1
 62
     7
370
    25
100
AcDbVertex
100
AcDb2dVertex
 10
105.7698251247891
 20
184.6444357516362
 30
0.0
  0
VERTEX
  5
1AE
330
15F
100
AcDbEntity
  8
_U+30EC_U+30A4_U+30E4_U+30FC 1
 62
     7
370
    25
100
AcDbVertex
100
AcDb2dVertex
 10
107.3573251243922
 20
184.3692802815987
 30
0.0
  0
VERTEX
  5
1AF
330
15F
100
AcDbEntity
  8
_U+30EC_U+30A4_U+30E4_U+30FC 1
 62
     7
370
    25
100
AcDbVertex
100
AcDb2dVertex
 10
108.9024935132203
 20
184.0517716689393
 30
0.0
  0
VERTEX
  5
1B0
330
15F
100
AcDbEntity
  8
_U+30EC_U+30A4_U+30E4_U+30FC 1
 62
     7
370
    25
100
AcDbVertex
100
AcDb2dVertex
 10
110.4053302912735
 20
183.6707871719643
 30
0.0
  0
VERTEX
  5
1B1
330
15F
100
AcDbEntity
  8
_U+30EC_U+30A4_U+30E4_U+30FC 1
 62
     7
370
    25
100
AcDbVertex
100
AcDb2dVertex
 10
111.8446588872407
 20
183.2262837269799
 30
0.0
  0
VERTEX
  5
1B2
330
15F
100
AcDbEntity
  8
_U+30EC_U+30A4_U+30E4_U+30FC 1
 62
     7
370
    25
100
AcDbVertex
100
AcDb2dVertex
 10
113.2416558724329
 20
182.718282865833
 30
0.0
  0
VERTEX
  5
1B3
330
15F
100
AcDbEntity
  8
_U+30EC_U+30A4_U+30E4_U+30FC 1
 62
     7
370
    25
100
AcDbVertex
100
AcDb2dVertex
 10
114.553989636075
 20
182.1467845885236
 30
0.0
  0
VERTEX
  5
1B4
330
15F
100
AcDbEntity
  8
_U+30EC_U+30A4_U+30E4_U+30FC 1
 62
     7
370
    25
100
AcDbVertex
100
AcDb2dVertex
 10
115.8028259835547
 20
181.5329547004393
 30
0.0
  0
VERTEX
  5
1B5
330
15F
100
AcDbEntity
  8
_U+30EC_U+30A4_U+30E4_U+30FC 1
 62
     7
370
    25
100
AcDbVertex
100
AcDb2dVertex
 10
116.966988343561
 20
180.8767716697331
 30
0.0
  0
SEQEND
  5
1B6
330
15F
100
AcDbEntity
  8
_U+30EC_U+30A4_U+30E4_U+30FC 1
 62
     7
370
    25
  0
POLYLINE
  5
1B7
330
1F
100
AcDbEntity
  8
_U+30EC_U+30A4_U+30E4_U+30FC 1
 62
     7
370
    25
100
AcDb2dPolyline
 66
     1
 10
0.0
 20
0.0
 30
0.0
  0
VERTEX
  5
1B8
330
1B7
100
AcDbEntity
  8
_U+30EC_U+30A4_U+30E4_U+30FC 1
 62
     7
370
    25
100
AcDbVertex
100
AcDb2dVertex
 10
79.6501608331555
 20
186.6341075854487
 30
0.0
  0
VERTEX
  5
1B9
330
1B7
100
AcDbEntity
  8
_U+30EC_U+30A4_U+30E4_U+30FC 1
 62
     7
370
    25
100
AcDbVertex
100
AcDb2dVertex
 10
78.2954954587383
 20
185.8932828650393
 30
0.0
  0
VERTEX
  5
1BA
330
1B7
100
AcDbEntity
  8
_U+30EC_U+30A4_U+30E4_U+30FC 1
 62
     7
370
    25
100
AcDbVertex
100
AcDb2dVertex
 10
77.02549330587112
 20
185.1101050020081
 30
0.0
  0
VERTEX
  5
1BB
330
1B7
100
AcDbEntity
  8
_U+30EC_U+30A4_U+30E4_U+30FC 1
 62
     7
370
    25
100
AcDbVertex
100
AcDb2dVertex
 10
75.86133094586486
 20
184.2846170600486
 30
0.0
  0
VERTEX
  5
1BC
330
1B7
100
AcDbEntity
  8
_U+30EC_U+30A4_U+30E4_U+30FC 1
 62
     7
370
    25
100
AcDbVertex
100
AcDb2dVertex
 10
74.7818264244469
 20
183.4167759754674
 30
0.0
  0
VERTEX
  5
1BD
330
1B7
100
AcDbEntity
  8
_U+30EC_U+30A4_U+30E4_U+30FC 1
 62
     7
370
    25
100
AcDbVertex
100
AcDb2dVertex
 10
73.80816169588986
 20
182.5066032801112
 30
0.0
  0
VERTEX
  5
1BE
330
1B7
100
AcDbEntity
  8
_U+30EC_U+30A4_U+30E4_U+30FC 1
 62
     7
370
    25
100
AcDbVertex
100
AcDb2dVertex
 10
72.94033137723204
 20
181.5541205058267
 30
0.0
  0
VERTEX
  5
1BF
330
1B7
100
AcDbEntity
  8
_U+30EC_U+30A4_U+30E4_U+30FC 1
 62
     7
370
    25
100
AcDbVertex
100
AcDb2dVertex
 10
72.17833008551173
 20
180.580450394308
 30
0.0
  0
VERTEX
  5
1C0
330
1B7
100
AcDbEntity
  8
_U+30EC_U+30A4_U+30E4_U+30FC 1
 62
     7
370
    25
100
AcDbVertex
100
AcDb2dVertex
 10
71.52216320369064
 20
179.5856144774018
 30
0.0
  0
VERTEX
  5
1C1
330
1B7
100
AcDbEntity
  8
_U+30EC_U+30A4_U+30E4_U+30FC 1
 62
     7
370
    25
100
AcDbVertex
100
AcDb2dVertex
 10
70.99299653715627
 20
178.569612755108
 30
0.0
  0
VERTEX
  5
1C2
330
1B7
100
AcDbEntity
  8
_U+30EC_U+30A4_U+30E4_U+30FC 1
 62
     7
370
    25
100
AcDbVertex
100
AcDb2dVertex
 10
70.56966428052111
 20
177.5324559933502
 30
0.0
  0
VERTEX
  5
1C3
330
1B7
100
AcDbEntity
  8
_U+30EC_U+30A4_U+30E4_U+30FC 1
 62
     7
370
    25
100
AcDbVertex
100
AcDb2dVertex
 10
70.27332685621097
 20
176.4741226602814
 30
0.0
  0
VERTEX
  5
1C4
330
1B7
100
AcDbEntity
  8
_U+30EC_U+30A4_U+30E4_U+30FC 1
 62
     7
370
    25
100
AcDbVertex
100
AcDb2dVertex
 10
70.08282922476174
 20
175.3946127559018
 30
0.0
  0
VERTEX
  5
1C5
330
1B7
100
AcDbEntity
  8
_U+30EC_U+30A4_U+30E4_U+30FC 1
 62
     7
370
    25
100
AcDbVertex
100
AcDb2dVertex
 10
70.01932642563753
 20
174.336279422833
 30
0.0
  0
VERTEX
  5
1C6
330
1B7
100
AcDbEntity
  8
_U+30EC_U+30A4_U+30E4_U+30FC 1
 62
     7
370
    25
100
AcDbVertex
100
AcDb2dVertex
 10
70.08282922476174
 20
173.2567695184534
 30
0.0
  0
VERTEX
  5
1C7
330
1B7
100
AcDbEntity
  8
_U+30EC_U+30A4_U+30E4_U+30FC 1
 62
     7
370
    25
100
AcDbVertex
100
AcDb2dVertex
 10
70.25216105082346
 20
172.1772703799971
 30
0.0
  0
VERTEX
  5
1C8
330
1B7
100
AcDbEntity
  8
_U+30EC_U+30A4_U+30E4_U+30FC 1
 62
     7
370
    25
100
AcDbVertex
100
AcDb2dVertex
 10
70.54849309217191
 20
171.0977712415409
 30
0.0
  0
VERTEX
  5
1C9
330
1B7
100
AcDbEntity
  8
_U+30EC_U+30A4_U+30E4_U+30FC 1
 62
     7
370
    25
100
AcDbVertex
100
AcDb2dVertex
 10
70.97183073176876
 20
170.0394379084721
 30
0.0
  0
VERTEX
  5
1CA
330
1B7
100
AcDbEntity
  8
_U+30EC_U+30A4_U+30E4_U+30FC 1
 62
     7
370
    25
100
AcDbVertex
100
AcDb2dVertex
 10
71.50099739830314
 20
169.0022703807909
 30
0.0
  0
VERTEX
  5
1CB
330
1B7
100
AcDbEntity
  8
_U+30EC_U+30A4_U+30E4_U+30FC 1
 62
     7
370
    25
100
AcDbVertex
100
AcDb2dVertex
 10
72.13599309177503
 20
167.9651028531096
 30
0.0
  0
VERTEX
  5
1CC
330
1B7
100
AcDbEntity
  8
_U+30EC_U+30A4_U+30E4_U+30FC 1
 62
     7
370
    25
100
AcDbVertex
100
AcDb2dVertex
 10
72.89799438349534
 20
166.9702777021268
 30
0.0
  0
VERTEX
  5
1CD
330
1B7
100
AcDbEntity
  8
_U+30EC_U+30A4_U+30E4_U+30FC 1
 62
     7
370
    25
100
AcDbVertex
100
AcDb2dVertex
 10
73.76583008511486
 20
165.9966075906081
 30
0.0
  0
VERTEX
  5
1CE
330
1B7
100
AcDbEntity
  8
_U+30EC_U+30A4_U+30E4_U+30FC 1
 62
     7
370
    25
100
AcDbVertex
100
AcDb2dVertex
 10
74.73949481367222
 20
165.0441032844768
 30
0.0
  0
VERTEX
  5
1CF
330
1B7
100
AcDbEntity
  8
_U+30EC_U+30A4_U+30E4_U+30FC 1
 62
     7
370
    25
100
AcDbVertex
100
AcDb2dVertex
 10
75.79782814674097
 20
164.1127755496565
 30
0.0
  0
VERTEX
  5
1D0
330
1B7
100
AcDbEntity
  8
_U+30EC_U+30A4_U+30E4_U+30FC 1
 62
     7
370
    25
100
AcDbVertex
100
AcDb2dVertex
 10
76.96199588970862
 20
163.244945230999
 30
0.0
  0
VERTEX
  5
1D1
330
1B7
100
AcDbEntity
  8
_U+30EC_U+30A4_U+30E4_U+30FC 1
 62
     7
370
    25
100
AcDbVertex
100
AcDb2dVertex
 10
78.2319980425758
 20
162.398269951805
 30
0.0
  0
VERTEX
  5
1D2
330
1B7
100
AcDbEntity
  8
_U+30EC_U+30A4_U+30E4_U+30FC 1
 62
     7
370
    25
100
AcDbVertex
100
AcDb2dVertex
 10
79.58666341699299
 20
161.6151028546971
 30
0.0
  0
VERTEX
  5
1D3
330
1B7
100
AcDbEntity
  8
_U+30EC_U+30A4_U+30E4_U+30FC 1
 62
     7
370
    25
100
AcDbVertex
100
AcDb2dVertex
 10
81.02599739592189
 20
160.8531123289002
 30
0.0
  0
VERTEX
  5
1D4
330
1B7
100
AcDbEntity
  8
_U+30EC_U+30A4_U+30E4_U+30FC 1
 62
     7
370
    25
100
AcDbVertex
100
AcDb2dVertex
 10
82.52882879101331
 20
160.1546084533427
 30
0.0
  0
VERTEX
  5
1D5
330
1B7
100
AcDbEntity
  8
_U+30EC_U+30A4_U+30E4_U+30FC 1
 62
     7
370
    25
100
AcDbVertex
100
AcDb2dVertex
 10
84.11632879061644
 20
159.5196127598705
 30
0.0
  0
VERTEX
  5
1D6
330
1B7
100
AcDbEntity
  8
_U+30EC_U+30A4_U+30E4_U+30FC 1
 62
     7
370
    25
100
AcDbVertex
100
AcDb2dVertex
 10
85.76732620638207
 20
158.9269379112503
 30
0.0
  0
VERTEX
  5
1D7
330
1B7
100
AcDbEntity
  8
_U+30EC_U+30A4_U+30E4_U+30FC 1
 62
     7
370
    25
100
AcDbVertex
100
AcDb2dVertex
 10
87.46066061588441
 20
158.3766054393284
 30
0.0
  0
VERTEX
  5
1D8
330
1B7
100
AcDbEntity
  8
_U+30EC_U+30A4_U+30E4_U+30FC 1
 62
     7
370
    25
100
AcDbVertex
100
AcDb2dVertex
 10
89.21749782451096
 20
157.9109361889565
 30
0.0
  0
VERTEX
  5
1D9
330
1B7
100
AcDbEntity
  8
_U+30EC_U+30A4_U+30E4_U+30FC 1
 62
     7
370
    25
100
AcDbVertex
100
AcDb2dVertex
 10
91.03782168337662
 20
157.4876093152831
 30
0.0
  0
VERTEX
  5
1DA
330
1B7
100
AcDbEntity
  8
_U+30EC_U+30A4_U+30E4_U+30FC 1
 62
     7
370
    25
100
AcDbVertex
100
AcDb2dVertex
 10
92.87932211355317
 20
157.1489456631596
 30
0.0
  0
VERTEX
  5
1DB
330
1B7
100
AcDbEntity
  8
_U+30EC_U+30A4_U+30E4_U+30FC 1
 62
     7
370
    25
100
AcDbVertex
100
AcDb2dVertex
 10
94.74198834911724
 20
156.8526028558878
 30
0.0
  0
VERTEX
  5
1DC
330
1B7
100
AcDbEntity
  8
_U+30EC_U+30A4_U+30E4_U+30FC 1
 62
     7
370
    25
100
AcDbVertex
100
AcDb2dVertex
 10
96.6469969613797
 20
156.6409448020127
 30
0.0
  0
VERTEX
  5
1DD
330
1B7
100
AcDbEntity
  8
_U+30EC_U+30A4_U+30E4_U+30FC 1
 62
     7
370
    25
100
AcDbVertex
100
AcDb2dVertex
 10
98.5519948077191
 20
156.4716075929893
 30
0.0
  0
VERTEX
  5
1DE
330
1B7
100
AcDbEntity
  8
_U+30EC_U+30A4_U+30E4_U+30FC 1
 62
     7
370
    25
100
AcDbVertex
100
AcDb2dVertex
 10
100.4781584594454
 20
156.3869443714393
 30
0.0
  0
VERTEX
  5
1DF
330
1B7
100
AcDbEntity
  8
_U+30EC_U+30A4_U+30E4_U+30FC 1
 62
     7
370
    25
100
AcDbVertex
100
AcDb2dVertex
 10
102.4043221111719
 20
156.3657785660521
 30
0.0
  0
VERTEX
  5
1E0
330
1B7
100
AcDbEntity
  8
_U+30EC_U+30A4_U+30E4_U+30FC 1
 62
     7
370
    25
100
AcDbVertex
100
AcDb2dVertex
 10
104.3304965288219
 20
156.4081101768268
 30
0.0
  0
VERTEX
  5
1E1
330
1B7
100
AcDbEntity
  8
_U+30EC_U+30A4_U+30E4_U+30FC 1
 62
     7
370
    25
100
AcDbVertex
100
AcDb2dVertex
 10
106.235494375161
 20
156.5139392037643
 30
0.0
  0
VERTEX
  5
1E2
330
1B7
100
AcDbEntity
  8
_U+30EC_U+30A4_U+30E4_U+30FC 1
 62
     7
370
    25
100
AcDbVertex
100
AcDb2dVertex
 10
108.1404922215
 20
156.6832764127877
 30
0.0
  0
VERTEX
  5
1E3
330
1B7
100
AcDbEntity
  8
_U+30EC_U+30A4_U+30E4_U+30FC 1
 62
     7
370
    25
100
AcDbVertex
100
AcDb2dVertex
 10
110.0031584570641
 20
156.9372768433612
 30
0.0
  0
VERTEX
  5
1E4
330
1B7
100
AcDbEntity
  8
_U+30EC_U+30A4_U+30E4_U+30FC 1
 62
     7
370
    25
100
AcDbVertex
100
AcDb2dVertex
 10
111.8234930818532
 20
157.2336088847096
 30
0.0
  0
VERTEX
  5
1E5
330
1B7
100
AcDbEntity
  8
_U+30EC_U+30A4_U+30E4_U+30FC 1
 62
     7
370
    25
100
AcDbVertex
100
AcDb2dVertex
 10
113.6014960958672
 20
157.6146041476081
 30
0.0
  0
VERTEX
  5
1E6
330
1B7
100
AcDbEntity
  8
_U+30EC_U+30A4_U+30E4_U+30FC 1
 62
     7
370
    25
100
AcDbVertex
100
AcDb2dVertex
 10
115.3371567331829
 20
158.0379417872053
 30
0.0
  0
VERTEX
  5
1E7
330
1B7
100
AcDbEntity
  8
_U+30EC_U+30A4_U+30E4_U+30FC 1
 62
     7
370
    25
100
AcDbVertex
100
AcDb2dVertex
 10
117.0304965256469
 20
158.5247768429643
 30
0.0
  0
VERTEX
  5
1E8
330
1B7
100
AcDbEntity
  8
_U+30EC_U+30A4_U+30E4_U+30FC 1
 62
     7
370
    25
100
AcDbVertex
100
AcDb2dVertex
 10
118.6391623306375
 20
159.0751093148862
 30
0.0
  0
VERTEX
  5
1E9
330
1B7
100
AcDbEntity
  8
_U+30EC_U+30A4_U+30E4_U+30FC 1
 62
     7
370
    25
100
AcDbVertex
100
AcDb2dVertex
 10
120.1843199535423
 20
159.6889392029706
 30
0.0
  0
VERTEX
  5
1EA
330
1B7
100
AcDbEntity
  8
_U+30EC_U+30A4_U+30E4_U+30FC 1
 62
     7
370
    25
100
AcDbVertex
100
AcDb2dVertex
 10
121.6659909262079
 20
160.3451114677534
 30
0.0
  0
VERTEX
  5
1EB
330
1B7
100
AcDbEntity
  8
_U+30EC_U+30A4_U+30E4_U+30FC 1
 62
     7
370
    25
100
AcDbVertex
100
AcDb2dVertex
 10
123.0629879114001
 20
161.0647703827753
 30
0.0
  0
VERTEX
  5
1EC
330
1B7
100
AcDbEntity
  8
_U+30EC_U+30A4_U+30E4_U+30FC 1
 62
     7
370
    25
100
AcDbVertex
100
AcDb2dVertex
 10
124.3753216750422
 20
161.8267716744959
 30
0.0
  0
VERTEX
  5
1ED
330
1B7
100
AcDbEntity
  8
_U+30EC_U+30A4_U+30E4_U+30FC 1
 62
     7
370
    25
100
AcDbVertex
100
AcDb2dVertex
 10
125.6029922171344
 20
162.6311045769909
 30
0.0
  0
VERTEX
  5
1EE
330
1B7
100
AcDbEntity
  8
_U+30EC_U+30A4_U+30E4_U+30FC 1
 62
     7
370
    25
100
AcDbVertex
100
AcDb2dVertex
 10
126.7248229663657
 20
163.4777798561846
 30
0.0
  0
VERTEX
  5
1EF
330
1B7
100
AcDbEntity
  8
_U+30EC_U+30A4_U+30E4_U+30FC 1
 62
     7
370
    25
100
AcDbVertex
100
AcDb2dVertex
 10
127.7408246886594
 20
164.3667759802299
 30
0.0
  0
VERTEX
  5
1F0
330
1B7
100
AcDbEntity
  8
_U+30EC_U+30A4_U+30E4_U+30FC 1
 62
     7
370
    25
100
AcDbVertex
100
AcDb2dVertex
 10
128.6721631894031
 20
165.2981037150503
 30
0.0
  0
VERTEX
  5
1F1
330
1B7
100
AcDbEntity
  8
_U+30EC_U+30A4_U+30E4_U+30FC 1
 62
     7
370
    25
100
AcDbVertex
100
AcDb2dVertex
 10
129.4764960918985
 20
166.2506080211815
 30
0.0
  0
VERTEX
  5
1F2
330
1B7
100
AcDbEntity
  8
_U+30EC_U+30A4_U+30E4_U+30FC 1
 62
     7
370
    25
100
AcDbVertex
100
AcDb2dVertex
 10
130.1961550069204
 20
167.2454439380877
 30
0.0
  0
VERTEX
  5
1F3
330
1B7
100
AcDbEntity
  8
_U+30EC_U+30A4_U+30E4_U+30FC 1
 62
     7
370
    25
100
AcDbVertex
100
AcDb2dVertex
 10
130.7888298555407
 20
168.2614456603815
 30
0.0
  0
VERTEX
  5
1F4
330
1B7
100
AcDbEntity
  8
_U+30EC_U+30A4_U+30E4_U+30FC 1
 62
     7
370
    25
100
AcDbVertex
100
AcDb2dVertex
 10
131.2544883399891
 20
169.2986131880627
 30
0.0
  0
VERTEX
  5
1F5
330
1B7
100
AcDbEntity
  8
_U+30EC_U+30A4_U+30E4_U+30FC 1
 62
     7
370
    25
100
AcDbVertex
100
AcDb2dVertex
 10
131.6143285634235
 20
170.3357699498206
 30
0.0
  0
VERTEX
  5
1F6
330
1B7
100
AcDbEntity
  8
_U+30EC_U+30A4_U+30E4_U+30FC 1
 62
     7
370
    25
100
AcDbVertex
100
AcDb2dVertex
 10
131.8683289939969
 20
171.4152798542002
 30
0.0
  0
VERTEX
  5
1F7
330
1B7
100
AcDbEntity
  8
_U+30EC_U+30A4_U+30E4_U+30FC 1
 62
     7
370
    25
100
AcDbVertex
100
AcDb2dVertex
 10
131.9953238263219
 20
172.473613187269
 30
0.0
  0
VERTEX
  5
1F8
330
1B7
100
AcDbEntity
  8
_U+30EC_U+30A4_U+30E4_U+30FC 1
 62
     7
370
    25
100
AcDbVertex
100
AcDb2dVertex
 10
131.9953238263219
 20
173.5531230916486
 30
0.0
  0
VERTEX
  5
1F9
330
1B7
100
AcDbEntity
  8
_U+30EC_U+30A4_U+30E4_U+30FC 1
 62
     7
370
    25
100
AcDbVertex
100
AcDb2dVertex
 10
131.8683289939969
 20
174.6326222301052
 30
0.0
  0
VERTEX
  5
1FA
330
1B7
100
AcDbEntity
  8
_U+30EC_U+30A4_U+30E4_U+30FC 1
 62
     7
370
    25
100
AcDbVertex
100
AcDb2dVertex
 10
131.635494368811
 20
175.7121213685611
 30
0.0
  0
VERTEX
  5
1FB
330
1B7
100
AcDbEntity
  8
_U+30EC_U+30A4_U+30E4_U+30FC 1
 62
     7
370
    25
100
AcDbVertex
100
AcDb2dVertex
 10
131.2756541453766
 20
176.7704547016299
 30
0.0
  0
VERTEX
  5
1FC
330
1B7
100
AcDbEntity
  8
_U+30EC_U+30A4_U+30E4_U+30FC 1
 62
     7
370
    25
100
AcDbVertex
100
AcDb2dVertex
 10
130.8099956609281
 20
177.8287880346986
 30
0.0
  0
VERTEX
  5
1FD
330
1B7
100
AcDbEntity
  8
_U+30EC_U+30A4_U+30E4_U+30FC 1
 62
     7
370
    25
100
AcDbVertex
100
AcDb2dVertex
 10
130.2173208123079
 20
178.8659555623802
 30
0.0
  0
VERTEX
  5
1FE
330
1B7
100
AcDbEntity
  8
_U+30EC_U+30A4_U+30E4_U+30FC 1
 62
     7
370
    25
100
AcDbVertex
100
AcDb2dVertex
 10
129.5188277026735
 20
179.8819465187502
 30
0.0
  0
VERTEX
  5
1FF
330
1B7
100
AcDbEntity
  8
_U+30EC_U+30A4_U+30E4_U+30FC 1
 62
     7
370
    25
100
AcDbVertex
100
AcDb2dVertex
 10
128.7144948001782
 20
180.8767716697331
 30
0.0
  0
VERTEX
  5
200
330
1B7
100
AcDbEntity
  8
_U+30EC_U+30A4_U+30E4_U+30FC 1
 62
     7
370
    25
100
AcDbVertex
100
AcDb2dVertex
 10
127.7831562994344
 20
181.8292759758643
 30
0.0
  0
VERTEX
  5
201
330
1B7
100
AcDbEntity
  8
_U+30EC_U+30A4_U+30E4_U+30FC 1
 62
     7
370
    25
100
AcDbVertex
100
AcDb2dVertex
 10
126.7671545771407
 20
182.760614476608
 30
0.0
  0
VERTEX
  5
202
330
1B7
100
AcDbEntity
  8
_U+30EC_U+30A4_U+30E4_U+30FC 1
 62
     7
370
    25
100
AcDbVertex
100
AcDb2dVertex
 10
125.6453238279094
 20
183.6707871719643
 30
0.0
  0
VERTEX
  5
203
330
1B7
100
AcDbEntity
  8
_U+30EC_U+30A4_U+30E4_U+30FC 1
 62
     7
370
    25
100
AcDbVertex
100
AcDb2dVertex
 10
124.4388298571281
 20
184.5174409193112
 30
0.0
  0
VERTEX
  5
204
330
1B7
100
AcDbEntity
  8
_U+30EC_U+30A4_U+30E4_U+30FC 1
 62
     7
370
    25
100
AcDbVertex
100
AcDb2dVertex
 10
123.126496093486
 20
185.3429503931174
 30
0.0
  0
VERTEX
  5
205
330
1B7
100
AcDbEntity
  8
_U+30EC_U+30A4_U+30E4_U+30FC 1
 62
     7
370
    25
100
AcDbVertex
100
AcDb2dVertex
 10
121.7294883423704
 20
186.1049409189143
 30
0.0
  0
VERTEX
  5
206
330
1B7
100
AcDbEntity
  8
_U+30EC_U+30A4_U+30E4_U+30FC 1
 62
     7
370
    25
100
AcDbVertex
100
AcDb2dVertex
 10
120.2689939410157
 20
186.8457871711705
 30
0.0
  0
VERTEX
  5
207
330
1B7
100
AcDbEntity
  8
_U+30EC_U+30A4_U+30E4_U+30FC 1
 62
     7
370
    25
100
AcDbVertex
100
AcDb2dVertex
 10
118.7026597468
 20
187.5019486700299
 30
0.0
  0
VERTEX
  5
208
330
1B7
100
AcDbEntity
  8
_U+30EC_U+30A4_U+30E4_U+30FC 1
 62
     7
370
    25
100
AcDbVertex
100
AcDb2dVertex
 10
117.0939939418094
 20
188.1369443635018
 30
0.0
  0
VERTEX
  5
209
330
1B7
100
AcDbEntity
  8
_U+30EC_U+30A4_U+30E4_U+30FC 1
 62
     7
370
    25
100
AcDbVertex
100
AcDb2dVertex
 10
115.4218307206563
 20
188.6872768354237
 30
0.0
  0
VERTEX
  5
20A
330
1B7
100
AcDbEntity
  8
_U+30EC_U+30A4_U+30E4_U+30FC 1
 62
     7
370
    25
100
AcDbVertex
100
AcDb2dVertex
 10
113.6861593174172
 20
189.1952776965705
 30
0.0
  0
VERTEX
  5
20B
330
1B7
100
AcDbEntity
  8
_U+30EC_U+30A4_U+30E4_U+30FC 1
 62
     7
370
    25
100
AcDbVertex
100
AcDb2dVertex
 10
111.9081563034032
 20
189.6397811415549
 30
0.0
  0
VERTEX
  5
20C
330
1B7
100
AcDbEntity
  8
_U+30EC_U+30A4_U+30E4_U+30FC 1
 62
     7
370
    25
100
AcDbVertex
100
AcDb2dVertex
 10
110.0878216786141
 20
190.0207871703768
 30
0.0
  0
VERTEX
  5
20D
330
1B7
100
AcDbEntity
  8
_U+30EC_U+30A4_U+30E4_U+30FC 1
 62
     7
370
    25
100
AcDbVertex
100
AcDb2dVertex
 10
108.2251554430501
 20
190.3594400565768
 30
0.0
  0
VERTEX
  5
20E
330
1B7
100
AcDbEntity
  8
_U+30EC_U+30A4_U+30E4_U+30FC 1
 62
     7
370
    25
100
AcDbVertex
100
AcDb2dVertex
 10
106.320157596711
 20
190.6134512530736
 30
0.0
  0
VERTEX
  5
20F
330
1B7
100
AcDbEntity
  8
_U+30EC_U+30A4_U+30E4_U+30FC 1
 62
     7
370
    25
100
AcDbVertex
100
AcDb2dVertex
 10
104.4151597503719
 20
190.8039435015612
 30
0.0
  0
VERTEX
  5
210
330
1B7
100
AcDbEntity
  8
_U+30EC_U+30A4_U+30E4_U+30FC 1
 62
     7
370
    25
100
AcDbVertex
100
AcDb2dVertex
 10
102.5101619040328
 20
190.9309383338862
 30
0.0
  0
VERTEX
  5
211
330
1B7
100
AcDbEntity
  8
_U+30EC_U+30A4_U+30E4_U+30FC 1
 62
     7
370
    25
100
AcDbVertex
100
AcDb2dVertex
 10
100.5628216809954
 20
190.9732699446612
 30
0.0
  0
VERTEX
  5
212
330
1B7
100
AcDbEntity
  8
_U+30EC_U+30A4_U+30E4_U+30FC 1
 62
     7
370
    25
100
AcDbVertex
100
AcDb2dVertex
 10
98.63665802926911
 20
190.9732699446612
 30
0.0
  0
VERTEX
  5
213
330
1B7
100
AcDbEntity
  8
_U+30EC_U+30A4_U+30E4_U+30FC 1
 62
     7
370
    25
100
AcDbVertex
100
AcDb2dVertex
 10
96.73166018292972
 20
190.8886067231112
 30
0.0
  0
VERTEX
  5
214
330
1B7
100
AcDbEntity
  8
_U+30EC_U+30A4_U+30E4_U+30FC 1
 62
     7
370
    25
100
AcDbVertex
100
AcDb2dVertex
 10
94.82666233659064
 20
190.7404460853987
 30
0.0
  0
VERTEX
  5
215
330
1B7
100
AcDbEntity
  8
_U+30EC_U+30A4_U+30E4_U+30FC 1
 62
     7
370
    25
100
AcDbVertex
100
AcDb2dVertex
 10
92.96399610102658
 20
190.5499538369111
 30
0.0
  0
VERTEX
  5
216
330
1B7
100
AcDbEntity
  8
_U+30EC_U+30A4_U+30E4_U+30FC 1
 62
     7
370
    25
100
AcDbVertex
100
AcDb2dVertex
 10
91.10132986546252
 20
190.2747768350268
 30
0.0
  0
VERTEX
  5
217
330
1B7
100
AcDbEntity
  8
_U+30EC_U+30A4_U+30E4_U+30FC 1
 62
     7
370
    25
100
AcDbVertex
100
AcDb2dVertex
 10
89.30216104606096
 20
189.93610241698
 30
0.0
  0
VERTEX
  5
218
330
1B7
100
AcDbEntity
  8
_U+30EC_U+30A4_U+30E4_U+30FC 1
 62
     7
370
    25
100
AcDbVertex
100
AcDb2dVertex
 10
87.54532922039611
 20
189.5339521146174
 30
0.0
  0
VERTEX
  5
219
330
1B7
100
AcDbEntity
  8
_U+30EC_U+30A4_U+30E4_U+30FC 1
 62
     7
370
    25
100
AcDbVertex
100
AcDb2dVertex
 10
85.83082900550627
 20
189.0682828642455
 30
0.0
  0
VERTEX
  5
21A
330
1B7
100
AcDbEntity
  8
_U+30EC_U+30A4_U+30E4_U+30FC 1
 62
     7
370
    25
100
AcDbVertex
100
AcDb2dVertex
 10
84.17982620677894
 20
188.5391161977111
 30
0.0
  0
VERTEX
  5
21B
330
1B7
100
AcDbEntity
  8
_U+30EC_U+30A4_U+30E4_U+30FC 1
 62
     7
370
    25
100
AcDbVertex
100
AcDb2dVertex
 10
82.59232620717582
 20
187.9676179204018
 30
0.0
  0
VERTEX
  5
21C
330
1B7
100
AcDbEntity
  8
_U+30EC_U+30A4_U+30E4_U+30FC 1
 62
     7
370
    25
100
AcDbVertex
100
AcDb2dVertex
 10
81.08949481208472
 20
187.3326222269299
 30
0.0
  0
VERTEX
  5
21D
330
1B7
100
AcDbEntity
  8
_U+30EC_U+30A4_U+30E4_U+30FC 1
 62
     7
370
    25
100
AcDbVertex
100
AcDb2dVertex
 10
79.6501608331555
 20
186.6341075854487
 30
0.0
  0
SEQEND
  5
21E
330
1B7
100
AcDbEntity
  8
_U+30EC_U+30A4_U+30E4_U+30FC 1
 62
     7
370
    25
  0
POLYLINE
  5
21F
330
1F
100
AcDbEntity
  8
_U+30EC_U+30A4_U+30E4_U+30FC 1
 62
     7
370
    25
100
AcDb2dPolyline
 66
     1
 10
0.0
 20
0.0
 30
0.0
  0
VERTEX
  5
220
330
21F
100
AcDbEntity
  8
_U+30EC_U+30A4_U+30E4_U+30FC 1
 62
     7
370
    25
100
AcDbVertex
100
AcDb2dVertex
 10
123.5074913563844
 20
186.3801179207987
 30
0.0
  0
VERTEX
  5
221
330
21F
100
AcDbEntity
  8
_U+30EC_U+30A4_U+30E4_U+30FC 1
 62
     7
370
    25
100
AcDbVertex
100
AcDb2dVertex
 10
122.1316601765797
 20
187.1632742519831
 30
0.0
  0
VERTEX
  5
222
330
21F
100
AcDbEntity
  8
_U+30EC_U+30A4_U+30E4_U+30FC 1
 62
     7
370
    25
100
AcDbVertex
100
AcDb2dVertex
 10
120.6711550093016
 20
187.9041205042392
 30
0.0
  0
VERTEX
  5
223
330
21F
100
AcDbEntity
  8
_U+30EC_U+30A4_U+30E4_U+30FC 1
 62
     7
370
    25
100
AcDbVertex
100
AcDb2dVertex
 10
119.1471631917844
 20
188.5814478084862
 30
0.0
  0
VERTEX
  5
224
330
21F
100
AcDbEntity
  8
_U+30EC_U+30A4_U+30E4_U+30FC 1
 62
     7
370
    25
100
AcDbVertex
100
AcDb2dVertex
 10
117.5384866208704
 20
189.2164435019581
 30
0.0
  0
VERTEX
  5
225
330
21F
100
AcDbEntity
  8
_U+30EC_U+30A4_U+30E4_U+30FC 1
 62
     7
370
    25
100
AcDbVertex
100
AcDb2dVertex
 10
115.8874892051047
 20
189.8091075846549
 30
0.0
  0
VERTEX
  5
226
330
21F
100
AcDbEntity
  8
_U+30EC_U+30A4_U+30E4_U+30FC 1
 62
     7
370
    25
100
AcDbVertex
100
AcDb2dVertex
 10
114.1518285677891
 20
190.3171084458018
 30
0.0
  0
VERTEX
  5
227
330
21F
100
AcDbEntity
  8
_U+30EC_U+30A4_U+30E4_U+30FC 1
 62
     7
370
    25
100
AcDbVertex
100
AcDb2dVertex
 10
112.3949913591625
 20
190.7827776961737
 30
0.0
  0
VERTEX
  5
228
330
21F
100
AcDbEntity
  8
_U+30EC_U+30A4_U+30E4_U+30FC 1
 62
     7
370
    25
100
AcDbVertex
100
AcDb2dVertex
 10
110.5746567343735
 20
191.184949530383
 30
0.0
  0
VERTEX
  5
229
330
21F
100
AcDbEntity
  8
_U+30EC_U+30A4_U+30E4_U+30FC 1
 62
     7
370
    25
100
AcDbVertex
100
AcDb2dVertex
 10
108.7119904988094
 20
191.5236024165831
 30
0.0
  0
VERTEX
  5
22A
330
21F
100
AcDbEntity
  8
_U+30EC_U+30A4_U+30E4_U+30FC 1
 62
     7
370
    25
100
AcDbVertex
100
AcDb2dVertex
 10
106.8493242632454
 20
191.7987794184674
 30
0.0
  0
VERTEX
  5
22B
330
21F
100
AcDbEntity
  8
_U+30EC_U+30A4_U+30E4_U+30FC 1
 62
     7
370
    25
100
AcDbVertex
100
AcDb2dVertex
 10
104.9443264169063
 20
191.9892716669549
 30
0.0
  0
VERTEX
  5
22C
330
21F
100
AcDbEntity
  8
_U+30EC_U+30A4_U+30E4_U+30FC 1
 62
     7
370
    25
100
AcDbVertex
100
AcDb2dVertex
 10
103.0181627651797
 20
192.1374538365143
 30
0.0
  0
VERTEX
  5
22D
330
21F
100
AcDbEntity
  8
_U+30EC_U+30A4_U+30E4_U+30FC 1
 62
     7
370
    25
100
AcDbVertex
100
AcDb2dVertex
 10
101.0919883475297
 20
192.2221170580643
 30
0.0
  0
VERTEX
  5
22E
330
21F
100
AcDbEntity
  8
_U+30EC_U+30A4_U+30E4_U+30FC 1
 62
     7
370
    25
100
AcDbVertex
100
AcDb2dVertex
 10
99.1658246958035
 20
192.2221170580643
 30
0.0
  0
VERTEX
  5
22F
330
21F
100
AcDbEntity
  8
_U+30EC_U+30A4_U+30E4_U+30FC 1
 62
     7
370
    25
100
AcDbVertex
100
AcDb2dVertex
 10
97.23966104407658
 20
192.1586196419018
 30
0.0
  0
VERTEX
  5
230
330
21F
100
AcDbEntity
  8
_U+30EC_U+30A4_U+30E4_U+30FC 1
 62
     7
370
    25
100
AcDbVertex
100
AcDb2dVertex
 10
95.33466319773751
 20
192.0316032777299
 30
0.0
  0
VERTEX
  5
231
330
21F
100
AcDbEntity
  8
_U+30EC_U+30A4_U+30E4_U+30FC 1
 62
     7
370
    25
100
AcDbVertex
100
AcDb2dVertex
 10
93.45083115678595
 20
191.8411110292424
 30
0.0
  0
VERTEX
  5
232
330
21F
100
AcDbEntity
  8
_U+30EC_U+30A4_U+30E4_U+30FC 1
 62
     7
370
    25
100
AcDbVertex
100
AcDb2dVertex
 10
91.60933072660939
 20
191.5871213645924
 30
0.0
  0
VERTEX
  5
233
330
21F
100
AcDbEntity
  8
_U+30EC_U+30A4_U+30E4_U+30FC 1
 62
     7
370
    25
100
AcDbVertex
100
AcDb2dVertex
 10
89.78899610182033
 20
191.269612751933
 30
0.0
  0
VERTEX
  5
234
330
21F
100
AcDbEntity
  8
_U+30EC_U+30A4_U+30E4_U+30FC 1
 62
     7
370
    25
100
AcDbVertex
100
AcDb2dVertex
 10
88.01099308780628
 20
190.8674409177237
 30
0.0
  0
VERTEX
  5
235
330
21F
100
AcDbEntity
  8
_U+30EC_U+30A4_U+30E4_U+30FC 1
 62
     7
370
    25
100
AcDbVertex
100
AcDb2dVertex
 10
86.29649287291645
 20
190.4229374727393
 30
0.0
  0
VERTEX
  5
236
330
21F
100
AcDbEntity
  8
_U+30EC_U+30A4_U+30E4_U+30FC 1
 62
     7
370
    25
100
AcDbVertex
100
AcDb2dVertex
 10
84.6243296517633
 20
189.9149366115925
 30
0.0
  0
VERTEX
  5
237
330
21F
100
AcDbEntity
  8
_U+30EC_U+30A4_U+30E4_U+30FC 1
 62
     7
370
    25
100
AcDbVertex
100
AcDb2dVertex
 10
83.01566384677267
 20
189.3646041396706
 30
0.0
  0
VERTEX
  5
238
330
21F
100
AcDbEntity
  8
_U+30EC_U+30A4_U+30E4_U+30FC 1
 62
     7
370
    25
100
AcDbVertex
100
AcDb2dVertex
 10
81.49166126333206
 20
188.7296084461987
 30
0.0
  0
VERTEX
  5
239
330
21F
100
AcDbEntity
  8
_U+30EC_U+30A4_U+30E4_U+30FC 1
 62
     7
370
    25
100
AcDbVertex
100
AcDb2dVertex
 10
80.03116147901598
 20
188.0522811419518
 30
0.0
  0
VERTEX
  5
23A
330
21F
100
AcDbEntity
  8
_U+30EC_U+30A4_U+30E4_U+30FC 1
 62
     7
370
    25
100
AcDbVertex
100
AcDb2dVertex
 10
78.65533029921096
 20
187.3326222269299
 30
0.0
  0
VERTEX
  5
23B
330
21F
100
AcDbEntity
  8
_U+30EC_U+30A4_U+30E4_U+30FC 1
 62
     7
370
    25
100
AcDbVertex
100
AcDb2dVertex
 10
77.36416234095627
 20
186.5494443638987
 30
0.0
  0
VERTEX
  5
23C
330
21F
100
AcDbEntity
  8
_U+30EC_U+30A4_U+30E4_U+30FC 1
 62
     7
370
    25
100
AcDbVertex
100
AcDb2dVertex
 10
76.17882879260081
 20
185.7451222273268
 30
0.0
  0
VERTEX
  5
23D
330
21F
100
AcDbEntity
  8
_U+30EC_U+30A4_U+30E4_U+30FC 1
 62
     7
370
    25
100
AcDbVertex
100
AcDb2dVertex
 10
75.07816384875704
 20
184.8772811427455
 30
0.0
  0
VERTEX
  5
23E
330
21F
100
AcDbEntity
  8
_U+30EC_U+30A4_U+30E4_U+30FC 1
 62
     7
370
    25
100
AcDbVertex
100
AcDb2dVertex
 10
74.0621621264633
 20
183.9882742527768
 30
0.0
  0
VERTEX
  5
23F
330
21F
100
AcDbEntity
  8
_U+30EC_U+30A4_U+30E4_U+30FC 1
 62
     7
370
    25
100
AcDbVertex
100
AcDb2dVertex
 10
73.17316061945628
 20
183.0357699466456
 30
0.0
  0
VERTEX
  5
240
330
21F
100
AcDbEntity
  8
_U+30EC_U+30A4_U+30E4_U+30FC 1
 62
     7
370
    25
100
AcDbVertex
100
AcDb2dVertex
 10
72.38999352234846
 20
182.0832871723611
 30
0.0
  0
VERTEX
  5
241
330
21F
100
AcDbEntity
  8
_U+30EC_U+30A4_U+30E4_U+30FC 1
 62
     7
370
    25
100
AcDbVertex
100
AcDb2dVertex
 10
71.71266083513987
 20
181.0884512554549
 30
0.0
  0
VERTEX
  5
242
330
21F
100
AcDbEntity
  8
_U+30EC_U+30A4_U+30E4_U+30FC 1
 62
     7
370
    25
100
AcDbVertex
100
AcDb2dVertex
 10
71.14116255783048
 20
180.0724495331611
 30
0.0
  0
VERTEX
  5
243
330
21F
100
AcDbEntity
  8
_U+30EC_U+30A4_U+30E4_U+30FC 1
 62
     7
370
    25
100
AcDbVertex
100
AcDb2dVertex
 10
70.69666449580782
 20
179.0352820054802
 30
0.0
  0
VERTEX
  5
244
330
21F
100
AcDbEntity
  8
_U+30EC_U+30A4_U+30E4_U+30FC 1
 62
     7
370
    25
100
AcDbVertex
100
AcDb2dVertex
 10
70.35799546072268
 20
177.9769486724115
 30
0.0
  0
VERTEX
  5
245
330
21F
100
AcDbEntity
  8
_U+30EC_U+30A4_U+30E4_U+30FC 1
 62
     7
370
    25
100
AcDbVertex
100
AcDb2dVertex
 10
70.14632664092424
 20
176.9186153393427
 30
0.0
  0
VERTEX
  5
246
330
21F
100
AcDbEntity
  8
_U+30EC_U+30A4_U+30E4_U+30FC 1
 62
     7
370
    25
100
AcDbVertex
100
AcDb2dVertex
 10
70.06166341937424
 20
175.8391162008861
 30
0.0
  0
SEQEND
  5
247
330
21F
100
AcDbEntity
  8
_U+30EC_U+30A4_U+30E4_U+30FC 1
 62
     7
370
    25
  0
POLYLINE
  5
248
330
1F
100
AcDbEntity
  8
_U+30EC_U+30A4_U+30E4_U+30FC 1
 62
     7
370
    25
100
AcDb2dPolyline
 66
     1
 10
0.0
 20
0.0
 30
0.0
  0
VERTEX
  5
249
330
248
100
AcDbEntity
  8
_U+30EC_U+30A4_U+30E4_U+30FC 1
 62
     7
370
    25
100
AcDbVertex
100
AcDb2dVertex
 10
132.0376554370969
 20
173.9976157707096
 30
0.0
  0
VERTEX
  5
24A
330
248
100
AcDbEntity
  8
_U+30EC_U+30A4_U+30E4_U+30FC 1
 62
     7
370
    25
100
AcDbVertex
100
AcDb2dVertex
 10
132.0376554370969
 20
174.526782437244
 30
0.0
  0
VERTEX
  5
24B
330
248
100
AcDbEntity
  8
_U+30EC_U+30A4_U+30E4_U+30FC 1
 62
     7
370
    25
100
AcDbVertex
100
AcDb2dVertex
 10
131.9529922155469
 20
175.6062815757002
 30
0.0
  0
VERTEX
  5
24C
330
248
100
AcDbEntity
  8
_U+30EC_U+30A4_U+30E4_U+30FC 1
 62
     7
370
    25
100
AcDbVertex
100
AcDb2dVertex
 10
131.7413233957485
 20
176.6857807141565
 30
0.0
  0
VERTEX
  5
24D
330
248
100
AcDbEntity
  8
_U+30EC_U+30A4_U+30E4_U+30FC 1
 62
     7
370
    25
100
AcDbVertex
100
AcDb2dVertex
 10
131.4238255490125
 20
177.7441140472252
 30
0.0
  0
VERTEX
  5
24E
330
248
100
AcDbEntity
  8
_U+30EC_U+30A4_U+30E4_U+30FC 1
 62
     7
370
    25
100
AcDbVertex
100
AcDb2dVertex
 10
130.9793221040282
 20
178.802447380294
 30
0.0
  0
VERTEX
  5
24F
330
248
100
AcDbEntity
  8
_U+30EC_U+30A4_U+30E4_U+30FC 1
 62
     7
370
    25
100
AcDbVertex
100
AcDb2dVertex
 10
130.4078238267188
 20
179.8396149079752
 30
0.0
  0
VERTEX
  5
250
330
248
100
AcDbEntity
  8
_U+30EC_U+30A4_U+30E4_U+30FC 1
 62
     7
370
    25
100
AcDbVertex
100
AcDb2dVertex
 10
129.7516623278594
 20
180.8556058643456
 30
0.0
  0
VERTEX
  5
251
330
248
100
AcDbEntity
  8
_U+30EC_U+30A4_U+30E4_U+30FC 1
 62
     7
370
    25
100
AcDbVertex
100
AcDb2dVertex
 10
128.9684952307516
 20
181.8716075866393
 30
0.0
  0
VERTEX
  5
252
330
248
100
AcDbEntity
  8
_U+30EC_U+30A4_U+30E4_U+30FC 1
 62
     7
370
    25
100
AcDbVertex
100
AcDb2dVertex
 10
128.0583225353954
 20
182.845277698158
 30
0.0
  0
VERTEX
  5
253
330
248
100
AcDbEntity
  8
_U+30EC_U+30A4_U+30E4_U+30FC 1
 62
     7
370
    25
100
AcDbVertex
100
AcDb2dVertex
 10
127.0634866184891
 20
183.7766161989018
 30
0.0
  0
VERTEX
  5
254
330
248
100
AcDbEntity
  8
_U+30EC_U+30A4_U+30E4_U+30FC 1
 62
     7
370
    25
100
AcDbVertex
100
AcDb2dVertex
 10
125.9839874800329
 20
184.686788894258
 30
0.0
  0
VERTEX
  5
255
330
248
100
AcDbEntity
  8
_U+30EC_U+30A4_U+30E4_U+30FC 1
 62
     7
370
    25
100
AcDbVertex
100
AcDb2dVertex
 10
124.7774935092516
 20
185.5546084469924
 30
0.0
  0
VERTEX
  5
256
330
248
100
AcDbEntity
  8
_U+30EC_U+30A4_U+30E4_U+30FC 1
 62
     7
370
    25
100
AcDbVertex
100
AcDb2dVertex
 10
123.5074913563844
 20
186.3801179207987
 30
0.0
  0
SEQEND
  5
257
330
248
100
AcDbEntity
  8
_U+30EC_U+30A4_U+30E4_U+30FC 1
 62
     7
370
    25
  0
POLYLINE
  5
258
330
1F
100
AcDbEntity
  8
_U+30EC_U+30A4_U+30E4_U+30FC 1
 62
     7
370
    25
100
AcDb2dPolyline
 66
     1
 10
0.0
 20
0.0
 30
0.0
  0
VERTEX
  5
259
330
258
100
AcDbEntity
  8
_U+30EC_U+30A4_U+30E4_U+30FC 1
 62
     7
370
    25
100
AcDbVertex
100
AcDb2dVertex
 10
114.0036571641532
 20
192.9629417784737
 30
0.0
  0
VERTEX
  5
25A
330
258
100
AcDbEntity
  8
_U+30EC_U+30A4_U+30E4_U+30FC 1
 62
     7
370
    25
100
AcDbVertex
100
AcDb2dVertex
 10
112.7124892058985
 20
193.407445223458
 30
0.0
  0
VERTEX
  5
25B
330
258
100
AcDbEntity
  8
_U+30EC_U+30A4_U+30E4_U+30FC 1
 62
     7
370
    25
100
AcDbVertex
100
AcDb2dVertex
 10
112.4584887753251
 20
193.4921084450081
 30
0.0
  0
SEQEND
  5
25C
330
258
100
AcDbEntity
  8
_U+30EC_U+30A4_U+30E4_U+30FC 1
 62
     7
370
    25
  0
POLYLINE
  5
25D
330
1F
100
AcDbEntity
  8
_U+30EC_U+30A4_U+30E4_U+30FC 1
 62
     7
370
    25
100
AcDb2dPolyline
 66
     1
 10
0.0
 20
0.0
 30
0.0
  0
VERTEX
  5
25E
330
25D
100
AcDbEntity
  8
_U+30EC_U+30A4_U+30E4_U+30FC 1
 62
     7
370
    25
100
AcDbVertex
100
AcDb2dVertex
 10
108.2463212484376
 20
194.5292759726893
 30
0.0
  0
VERTEX
  5
25F
330
25D
100
AcDbEntity
  8
_U+30EC_U+30A4_U+30E4_U+30FC 1
 62
     7
370
    25
100
AcDbVertex
100
AcDb2dVertex
 10
107.9711550124766
 20
194.5927733888518
 30
0.0
  0
VERTEX
  5
260
330
25D
100
AcDbEntity
  8
_U+30EC_U+30A4_U+30E4_U+30FC 1
 62
     7
370
    25
100
AcDbVertex
100
AcDb2dVertex
 10
106.2989917913235
 20
194.8467845853486
 30
0.0
  0
VERTEX
  5
261
330
25D
100
AcDbEntity
  8
_U+30EC_U+30A4_U+30E4_U+30FC 1
 62
     7
370
    25
100
AcDbVertex
100
AcDb2dVertex
 10
104.6268285701703
 20
195.0584426392237
 30
0.0
  0
VERTEX
  5
262
330
25D
100
AcDbEntity
  8
_U+30EC_U+30A4_U+30E4_U+30FC 1
 62
     7
370
    25
100
AcDbVertex
100
AcDb2dVertex
 10
102.9123229723188
 20
195.1854374715487
 30
0.0
  0
VERTEX
  5
263
330
25D
100
AcDbEntity
  8
_U+30EC_U+30A4_U+30E4_U+30FC 1
 62
     7
370
    25
100
AcDbVertex
100
AcDb2dVertex
 10
101.197828140391
 20
195.2489348877112
 30
0.0
  0
VERTEX
  5
264
330
25D
100
AcDbEntity
  8
_U+30EC_U+30A4_U+30E4_U+30FC 1
 62
     7
370
    25
100
AcDbVertex
100
AcDb2dVertex
 10
99.50448834792661
 20
195.2489348877112
 30
0.0
  0
VERTEX
  5
265
330
25D
100
AcDbEntity
  8
_U+30EC_U+30A4_U+30E4_U+30FC 1
 62
     7
370
    25
100
AcDbVertex
100
AcDb2dVertex
 10
97.78999351599848
 20
195.1854374715487
 30
0.0
  0
VERTEX
  5
266
330
25D
100
AcDbEntity
  8
_U+30EC_U+30A4_U+30E4_U+30FC 1
 62
     7
370
    25
100
AcDbVertex
100
AcDb2dVertex
 10
96.11783029484533
 20
195.0372768338362
 30
0.0
  0
VERTEX
  5
267
330
25D
100
AcDbEntity
  8
_U+30EC_U+30A4_U+30E4_U+30FC 1
 62
     7
370
    25
100
AcDbVertex
100
AcDb2dVertex
 10
94.4456563077688
 20
194.8467845853486
 30
0.0
  0
VERTEX
  5
268
330
25D
100
AcDbEntity
  8
_U+30EC_U+30A4_U+30E4_U+30FC 1
 62
     7
370
    25
100
AcDbVertex
100
AcDb2dVertex
 10
92.83699050277816
 20
194.5716075834643
 30
0.0
  0
VERTEX
  5
269
330
25D
100
AcDbEntity
  8
_U+30EC_U+30A4_U+30E4_U+30FC 1
 62
     7
370
    25
100
AcDbVertex
100
AcDb2dVertex
 10
91.24949050317504
 20
194.2541205026517
 30
0.0
  0
VERTEX
  5
26A
330
25D
100
AcDbEntity
  8
_U+30EC_U+30A4_U+30E4_U+30FC 1
 62
     7
370
    25
100
AcDbVertex
100
AcDb2dVertex
 10
89.70432749730863
 20
193.8519486684424
 30
0.0
  0
VERTEX
  5
26B
330
25D
100
AcDbEntity
  8
_U+30EC_U+30A4_U+30E4_U+30FC 1
 62
     7
370
    25
100
AcDbVertex
100
AcDb2dVertex
 10
88.24382771299221
 20
193.407445223458
 30
0.0
  0
VERTEX
  5
26C
330
25D
100
AcDbEntity
  8
_U+30EC_U+30A4_U+30E4_U+30FC 1
 62
     7
370
    25
100
AcDbVertex
100
AcDb2dVertex
 10
86.82565953945081
 20
192.8994443623112
 30
0.0
  0
VERTEX
  5
26D
330
25D
100
AcDbEntity
  8
_U+30EC_U+30A4_U+30E4_U+30FC 1
 62
     7
370
    25
100
AcDbVertex
100
AcDb2dVertex
 10
85.49215997042113
 20
192.3279460850018
 30
0.0
  0
VERTEX
  5
26E
330
25D
100
AcDbEntity
  8
_U+30EC_U+30A4_U+30E4_U+30FC 1
 62
     7
370
    25
100
AcDbVertex
100
AcDb2dVertex
 10
84.22216320051564
 20
191.6929503915299
 30
0.0
  0
VERTEX
  5
26F
330
25D
100
AcDbEntity
  8
_U+30EC_U+30A4_U+30E4_U+30FC 1
 62
     7
370
    25
100
AcDbVertex
100
AcDb2dVertex
 10
83.05799545754768
 20
191.0367888926705
 30
0.0
  0
VERTEX
  5
270
330
25D
100
AcDbEntity
  8
_U+30EC_U+30A4_U+30E4_U+30FC 1
 62
     7
370
    25
100
AcDbVertex
100
AcDb2dVertex
 10
81.97849631909142
 20
190.3171084458018
 30
0.0
  0
VERTEX
  5
271
330
25D
100
AcDbEntity
  8
_U+30EC_U+30A4_U+30E4_U+30FC 1
 62
     7
370
    25
100
AcDbVertex
100
AcDb2dVertex
 10
80.98366040218518
 20
189.5551179200049
 30
0.0
  0
VERTEX
  5
272
330
25D
100
AcDbEntity
  8
_U+30EC_U+30A4_U+30E4_U+30FC 1
 62
     7
370
    25
100
AcDbVertex
100
AcDb2dVertex
 10
80.09466427813986
 20
188.7507742515862
 30
0.0
  0
VERTEX
  5
273
330
25D
100
AcDbEntity
  8
_U+30EC_U+30A4_U+30E4_U+30FC 1
 62
     7
370
    25
100
AcDbVertex
100
AcDb2dVertex
 10
79.31149718103205
 20
187.9252863096268
 30
0.0
  0
VERTEX
  5
274
330
25D
100
AcDbEntity
  8
_U+30EC_U+30A4_U+30E4_U+30FC 1
 62
     7
370
    25
100
AcDbVertex
100
AcDb2dVertex
 10
78.97282814594722
 20
187.5019486700299
 30
0.0
  0
SEQEND
  5
275
330
25D
100
AcDbEntity
  8
_U+30EC_U+30A4_U+30E4_U+30FC 1
 62
     7
370
    25
  0
POLYLINE
  5
276
330
1F
100
AcDbEntity
  8
_U+30EC_U+30A4_U+30E4_U+30FC 1
 62
     7
370
    25
100
AcDb2dPolyline
 66
     1
 10
0.0
 20
0.0
 30
0.0
  0
VERTEX
  5
277
330
276
100
AcDbEntity
  8
_U+30EC_U+30A4_U+30E4_U+30FC 1
 62
     7
370
    25
100
AcDbVertex
100
AcDb2dVertex
 10
86.27532706752893
 20
182.1891161992986
 30
0.0
  0
VERTEX
  5
278
330
276
100
AcDbEntity
  8
_U+30EC_U+30A4_U+30E4_U+30FC 1
 62
     7
370
    25
100
AcDbVertex
100
AcDb2dVertex
 10
86.16949804059142
 20
182.1256187831361
 30
0.0
  0
VERTEX
  5
279
330
276
100
AcDbEntity
  8
_U+30EC_U+30A4_U+30E4_U+30FC 1
 62
     7
370
    25
100
AcDbVertex
100
AcDb2dVertex
 10
85.17466212368518
 20
181.4906230896642
 30
0.0
  0
VERTEX
  5
27A
330
276
100
AcDbEntity
  8
_U+30EC_U+30A4_U+30E4_U+30FC 1
 62
     7
370
    25
100
AcDbVertex
100
AcDb2dVertex
 10
84.28566061667816
 20
180.7921084481831
 30
0.0
  0
VERTEX
  5
27B
330
276
100
AcDbEntity
  8
_U+30EC_U+30A4_U+30E4_U+30FC 1
 62
     7
370
    25
100
AcDbVertex
100
AcDb2dVertex
 10
83.48132771418284
 20
180.0724495331611
 30
0.0
  0
VERTEX
  5
27C
330
276
100
AcDbEntity
  8
_U+30EC_U+30A4_U+30E4_U+30FC 1
 62
     7
370
    25
100
AcDbVertex
100
AcDb2dVertex
 10
82.80399502697425
 20
179.3104482414408
 30
0.0
  0
VERTEX
  5
27D
330
276
100
AcDbEntity
  8
_U+30EC_U+30A4_U+30E4_U+30FC 1
 62
     7
370
    25
100
AcDbVertex
100
AcDb2dVertex
 10
82.21133094427736
 20
178.527281144333
 30
0.0
  0
VERTEX
  5
27E
330
276
100
AcDbEntity
  8
_U+30EC_U+30A4_U+30E4_U+30FC 1
 62
     7
370
    25
100
AcDbVertex
100
AcDb2dVertex
 10
81.74566169390549
 20
177.7017824364502
 30
0.0
  0
VERTEX
  5
27F
330
276
100
AcDbEntity
  8
_U+30EC_U+30A4_U+30E4_U+30FC 1
 62
     7
370
    25
100
AcDbVertex
100
AcDb2dVertex
 10
81.38582685343285
 20
176.8762837285674
 30
0.0
  0
VERTEX
  5
280
330
276
100
AcDbEntity
  8
_U+30EC_U+30A4_U+30E4_U+30FC 1
 62
     7
370
    25
100
AcDbVertex
100
AcDb2dVertex
 10
81.1529976112086
 20
176.0296192152971
 30
0.0
  0
VERTEX
  5
281
330
276
100
AcDbEntity
  8
_U+30EC_U+30A4_U+30E4_U+30FC 1
 62
     7
370
    25
100
AcDbVertex
100
AcDb2dVertex
 10
81.04716320130939
 20
175.1617888966396
 30
0.0
  0
VERTEX
  5
282
330
276
100
AcDbEntity
  8
_U+30EC_U+30A4_U+30E4_U+30FC 1
 62
     7
370
    25
100
AcDbVertex
100
AcDb2dVertex
 10
81.04716320130939
 20
174.293947812058
 30
0.0
  0
VERTEX
  5
283
330
276
100
AcDbEntity
  8
_U+30EC_U+30A4_U+30E4_U+30FC 1
 62
     7
370
    25
100
AcDbVertex
100
AcDb2dVertex
 10
81.17416341659612
 20
173.4261174934002
 30
0.0
  0
VERTEX
  5
284
330
276
100
AcDbEntity
  8
_U+30EC_U+30A4_U+30E4_U+30FC 1
 62
     7
370
    25
100
AcDbVertex
100
AcDb2dVertex
 10
81.42816384716954
 20
172.558276408819
 30
0.0
  0
VERTEX
  5
285
330
276
100
AcDbEntity
  8
_U+30EC_U+30A4_U+30E4_U+30FC 1
 62
     7
370
    25
100
AcDbVertex
100
AcDb2dVertex
 10
81.7879933046805
 20
171.711611895549
 30
0.0
  0
VERTEX
  5
286
330
276
100
AcDbEntity
  8
_U+30EC_U+30A4_U+30E4_U+30FC 1
 62
     7
370
    25
100
AcDbVertex
100
AcDb2dVertex
 10
82.27482836043987
 20
170.8861131876658
 30
0.0
  0
VERTEX
  5
287
330
276
100
AcDbEntity
  8
_U+30EC_U+30A4_U+30E4_U+30FC 1
 62
     7
370
    25
100
AcDbVertex
100
AcDb2dVertex
 10
82.86749782609846
 20
170.0817695192471
 30
0.0
  0
VERTEX
  5
288
330
276
100
AcDbEntity
  8
_U+30EC_U+30A4_U+30E4_U+30FC 1
 62
     7
370
    25
100
AcDbVertex
100
AcDb2dVertex
 10
83.56599631869454
 20
169.2986131880627
 30
0.0
  0
VERTEX
  5
289
330
276
100
AcDbEntity
  8
_U+30EC_U+30A4_U+30E4_U+30FC 1
 62
     7
370
    25
100
AcDbVertex
100
AcDb2dVertex
 10
84.37032922118986
 20
168.5366118963427
 30
0.0
  0
VERTEX
  5
28A
330
276
100
AcDbEntity
  8
_U+30EC_U+30A4_U+30E4_U+30FC 1
 62
     7
370
    25
100
AcDbVertex
100
AcDb2dVertex
 10
85.2804965335844
 20
167.8169422153971
 30
0.0
  0
VERTEX
  5
28B
330
276
100
AcDbEntity
  8
_U+30EC_U+30A4_U+30E4_U+30FC 1
 62
     7
370
    25
100
AcDbVertex
100
AcDb2dVertex
 10
86.27532706752893
 20
167.1396041452268
 30
0.0
  0
VERTEX
  5
28C
330
276
100
AcDbEntity
  8
_U+30EC_U+30A4_U+30E4_U+30FC 1
 62
     7
370
    25
100
AcDbVertex
100
AcDb2dVertex
 10
87.37599739433439
 20
166.4834426463674
 30
0.0
  0
VERTEX
  5
28D
330
276
100
AcDbEntity
  8
_U+30EC_U+30A4_U+30E4_U+30FC 1
 62
     7
370
    25
100
AcDbVertex
100
AcDb2dVertex
 10
88.54015975434066
 20
165.911944369058
 30
0.0
  0
VERTEX
  5
28E
330
276
100
AcDbEntity
  8
_U+30EC_U+30A4_U+30E4_U+30FC 1
 62
     7
370
    25
100
AcDbVertex
100
AcDb2dVertex
 10
89.78899610182033
 20
165.3616118971365
 30
0.0
  0
VERTEX
  5
28F
330
276
100
AcDbEntity
  8
_U+30EC_U+30A4_U+30E4_U+30FC 1
 62
     7
370
    25
100
AcDbVertex
100
AcDb2dVertex
 10
91.10132986546252
 20
164.8747768413768
 30
0.0
  0
VERTEX
  5
290
330
276
100
AcDbEntity
  8
_U+30EC_U+30A4_U+30E4_U+30FC 1
 62
     7
370
    25
100
AcDbVertex
100
AcDb2dVertex
 10
92.47716104526721
 20
164.4514392017799
 30
0.0
  0
VERTEX
  5
291
330
276
100
AcDbEntity
  8
_U+30EC_U+30A4_U+30E4_U+30FC 1
 62
     7
370
    25
100
AcDbVertex
100
AcDb2dVertex
 10
93.91648964123442
 20
164.091609744269
 30
0.0
  0
VERTEX
  5
292
330
276
100
AcDbEntity
  8
_U+30EC_U+30A4_U+30E4_U+30FC 1
 62
     7
370
    25
100
AcDbVertex
100
AcDb2dVertex
 10
95.37699480851285
 20
163.7741118975334
 30
0.0
  0
VERTEX
  5
293
330
276
100
AcDbEntity
  8
_U+30EC_U+30A4_U+30E4_U+30FC 1
 62
     7
370
    25
100
AcDbVertex
100
AcDb2dVertex
 10
96.87982082064225
 20
163.5412772723471
 30
0.0
  0
VERTEX
  5
294
330
276
100
AcDbEntity
  8
_U+30EC_U+30A4_U+30E4_U+30FC 1
 62
     7
370
    25
100
AcDbVertex
100
AcDb2dVertex
 10
98.40382340408286
 20
163.3507742579362
 30
0.0
  0
VERTEX
  5
295
330
276
100
AcDbEntity
  8
_U+30EC_U+30A4_U+30E4_U+30FC 1
 62
     7
370
    25
100
AcDbVertex
100
AcDb2dVertex
 10
99.94899179291097
 20
163.244945230999
 30
0.0
  0
VERTEX
  5
296
330
276
100
AcDbEntity
  8
_U+30EC_U+30A4_U+30E4_U+30FC 1
 62
     7
370
    25
100
AcDbVertex
100
AcDb2dVertex
 10
101.5153259871266
 20
163.2026028543003
 30
0.0
  0
VERTEX
  5
297
330
276
100
AcDbEntity
  8
_U+30EC_U+30A4_U+30E4_U+30FC 1
 62
     7
370
    25
100
AcDbVertex
100
AcDb2dVertex
 10
103.0604943759547
 20
163.2237794256112
 30
0.0
  0
VERTEX
  5
298
330
276
100
AcDbEntity
  8
_U+30EC_U+30A4_U+30E4_U+30FC 1
 62
     7
370
    25
100
AcDbVertex
100
AcDb2dVertex
 10
104.5844969593953
 20
163.3084426471612
 30
0.0
  0
VERTEX
  5
299
330
276
100
AcDbEntity
  8
_U+30EC_U+30A4_U+30E4_U+30FC 1
 62
     7
370
    25
100
AcDbVertex
100
AcDb2dVertex
 10
106.1084887769126
 20
163.4777798561846
 30
0.0
  0
VERTEX
  5
29A
330
276
100
AcDbEntity
  8
_U+30EC_U+30A4_U+30E4_U+30FC 1
 62
     7
370
    25
100
AcDbVertex
100
AcDb2dVertex
 10
107.5901597495782
 20
163.6894379100596
 30
0.0
  0
VERTEX
  5
29B
330
276
100
AcDbEntity
  8
_U+30EC_U+30A4_U+30E4_U+30FC 1
 62
     7
370
    25
100
AcDbVertex
100
AcDb2dVertex
 10
109.0294883455454
 20
163.9646041460206
 30
0.0
  0
VERTEX
  5
29C
330
276
100
AcDbEntity
  8
_U+30EC_U+30A4_U+30E4_U+30FC 1
 62
     7
370
    25
100
AcDbVertex
100
AcDb2dVertex
 10
110.426496096661
 20
164.3244443694549
 30
0.0
  0
VERTEX
  5
29D
330
276
100
AcDbEntity
  8
_U+30EC_U+30A4_U+30E4_U+30FC 1
 62
     7
370
    25
100
AcDbVertex
100
AcDb2dVertex
 10
111.7599956656907
 20
164.7266054377409
 30
0.0
  0
VERTEX
  5
29E
330
276
100
AcDbEntity
  8
_U+30EC_U+30A4_U+30E4_U+30FC 1
 62
     7
370
    25
100
AcDbVertex
100
AcDb2dVertex
 10
113.0511636239453
 20
165.1922746881127
 30
0.0
  0
VERTEX
  5
29F
330
276
100
AcDbEntity
  8
_U+30EC_U+30A4_U+30E4_U+30FC 1
 62
     7
370
    25
100
AcDbVertex
100
AcDb2dVertex
 10
114.2364917893391
 20
165.7214413546471
 30
0.0
  0
VERTEX
  5
2A0
330
276
100
AcDbEntity
  8
_U+30EC_U+30A4_U+30E4_U+30FC 1
 62
     7
370
    25
100
AcDbVertex
100
AcDb2dVertex
 10
115.3583225385704
 20
166.2929396319565
 30
0.0
  0
VERTEX
  5
2A1
330
276
100
AcDbEntity
  8
_U+30EC_U+30A4_U+30E4_U+30FC 1
 62
     7
370
    25
100
AcDbVertex
100
AcDb2dVertex
 10
116.3954900662516
 20
166.9067695200409
 30
0.0
  0
VERTEX
  5
2A2
330
276
100
AcDbEntity
  8
_U+30EC_U+30A4_U+30E4_U+30FC 1
 62
     7
370
    25
100
AcDbVertex
100
AcDb2dVertex
 10
117.3479943723828
 20
167.5841075902112
 30
0.0
  0
VERTEX
  5
2A3
330
276
100
AcDbEntity
  8
_U+30EC_U+30A4_U+30E4_U+30FC 1
 62
     7
370
    25
100
AcDbVertex
100
AcDb2dVertex
 10
118.1946588856532
 20
168.282611465769
 30
0.0
  0
VERTEX
  5
2A4
330
276
100
AcDbEntity
  8
_U+30EC_U+30A4_U+30E4_U+30FC 1
 62
     7
370
    25
100
AcDbVertex
100
AcDb2dVertex
 10
118.935494371986
 20
169.0446127574893
 30
0.0
  0
VERTEX
  5
2A5
330
276
100
AcDbEntity
  8
_U+30EC_U+30A4_U+30E4_U+30FC 1
 62
     7
370
    25
100
AcDbVertex
100
AcDb2dVertex
 10
119.5704900654579
 20
169.8066032832862
 30
0.0
  0
VERTEX
  5
2A6
330
276
100
AcDbEntity
  8
_U+30EC_U+30A4_U+30E4_U+30FC 1
 62
     7
370
    25
100
AcDbVertex
100
AcDb2dVertex
 10
120.0996567319922
 20
170.6109361857815
 30
0.0
  0
VERTEX
  5
2A7
330
276
100
AcDbEntity
  8
_U+30EC_U+30A4_U+30E4_U+30FC 1
 62
     7
370
    25
100
AcDbVertex
100
AcDb2dVertex
 10
120.5018285662016
 20
171.4364456595877
 30
0.0
  0
VERTEX
  5
2A8
330
276
100
AcDbEntity
  8
_U+30EC_U+30A4_U+30E4_U+30FC 1
 62
     7
370
    25
100
AcDbVertex
100
AcDb2dVertex
 10
120.79816060755
 20
172.283110172858
 30
0.0
  0
VERTEX
  5
2A9
330
276
100
AcDbEntity
  8
_U+30EC_U+30A4_U+30E4_U+30FC 1
 62
     7
370
    25
100
AcDbVertex
100
AcDb2dVertex
 10
120.9674870506501
 20
173.1509404915159
 30
0.0
  0
VERTEX
  5
2AA
330
276
100
AcDbEntity
  8
_U+30EC_U+30A4_U+30E4_U+30FC 1
 62
     7
370
    25
100
AcDbVertex
100
AcDb2dVertex
 10
121.030995232736
 20
174.0187815760971
 30
0.0
  0
VERTEX
  5
2AB
330
276
100
AcDbEntity
  8
_U+30EC_U+30A4_U+30E4_U+30FC 1
 62
     7
370
    25
100
AcDbVertex
100
AcDb2dVertex
 10
120.9674870506501
 20
174.8654460893674
 30
0.0
  0
VERTEX
  5
2AC
330
276
100
AcDbEntity
  8
_U+30EC_U+30A4_U+30E4_U+30FC 1
 62
     7
370
    25
100
AcDbVertex
100
AcDb2dVertex
 10
120.7769948021625
 20
175.7332871739486
 30
0.0
  0
VERTEX
  5
2AD
330
276
100
AcDbEntity
  8
_U+30EC_U+30A4_U+30E4_U+30FC 1
 62
     7
370
    25
100
AcDbVertex
100
AcDb2dVertex
 10
120.4594969554266
 20
176.6011174926064
 30
0.0
  0
VERTEX
  5
2AE
330
276
100
AcDbEntity
  8
_U+30EC_U+30A4_U+30E4_U+30FC 1
 62
     7
370
    25
100
AcDbVertex
100
AcDb2dVertex
 10
120.0361593158297
 20
177.4266162004893
 30
0.0
  0
VERTEX
  5
2AF
330
276
100
AcDbEntity
  8
_U+30EC_U+30A4_U+30E4_U+30FC 1
 62
     7
370
    25
100
AcDbVertex
100
AcDb2dVertex
 10
119.5069926492954
 20
178.2521149083721
 30
0.0
  0
VERTEX
  5
2B0
330
276
100
AcDbEntity
  8
_U+30EC_U+30A4_U+30E4_U+30FC 1
 62
     7
370
    25
100
AcDbVertex
100
AcDb2dVertex
 10
118.8508203845126
 20
179.0564478108674
 30
0.0
  0
VERTEX
  5
2B1
330
276
100
AcDbEntity
  8
_U+30EC_U+30A4_U+30E4_U+30FC 1
 62
     7
370
    25
100
AcDbVertex
100
AcDb2dVertex
 10
118.1099956641032
 20
179.8184491025877
 30
0.0
  0
VERTEX
  5
2B2
330
276
100
AcDbEntity
  8
_U+30EC_U+30A4_U+30E4_U+30FC 1
 62
     7
370
    25
100
AcDbVertex
100
AcDb2dVertex
 10
117.2421545795219
 20
180.5592845889205
 30
0.0
  0
VERTEX
  5
2B3
330
276
100
AcDbEntity
  8
_U+30EC_U+30A4_U+30E4_U+30FC 1
 62
     7
370
    25
100
AcDbVertex
100
AcDb2dVertex
 10
116.2896610393141
 20
181.2789435039424
 30
0.0
  0
VERTEX
  5
2B4
330
276
100
AcDbEntity
  8
_U+30EC_U+30A4_U+30E4_U+30FC 1
 62
     7
370
    25
100
AcDbVertex
100
AcDb2dVertex
 10
116.2261636231516
 20
181.3212751147174
 30
0.0
  0
SEQEND
  5
2B5
330
276
100
AcDbEntity
  8
_U+30EC_U+30A4_U+30E4_U+30FC 1
 62
     7
370
    25
  0
POLYLINE
  5
2B6
330
1F
100
AcDbEntity
  8
_U+30EC_U+30A4_U+30E4_U+30FC 1
 62
     7
370
    25
100
AcDb2dPolyline
 66
     1
 10
0.0
 20
0.0
 30
0.0
  0
VERTEX
  5
2B7
330
2B6
100
AcDbEntity
  8
_U+30EC_U+30A4_U+30E4_U+30FC 1
 62
     7
370
    25
100
AcDbVertex
100
AcDb2dVertex
 10
86.57166449183907
 20
167.9227712423346
 30
0.0
  0
VERTEX
  5
2B8
330
2B6
100
AcDbEntity
  8
_U+30EC_U+30A4_U+30E4_U+30FC 1
 62
     7
370
    25
100
AcDbVertex
100
AcDb2dVertex
 10
87.69349524107034
 20
167.3089413542502
 30
0.0
  0
VERTEX
  5
2B9
330
2B6
100
AcDbEntity
  8
_U+30EC_U+30A4_U+30E4_U+30FC 1
 62
     7
370
    25
100
AcDbVertex
100
AcDb2dVertex
 10
88.87882878942581
 20
166.7162772715534
 30
0.0
  0
VERTEX
  5
2BA
330
2B6
100
AcDbEntity
  8
_U+30EC_U+30A4_U+30E4_U+30FC 1
 62
     7
370
    25
100
AcDbVertex
100
AcDb2dVertex
 10
90.14883094229299
 20
166.2082764104065
 30
0.0
  0
VERTEX
  5
2BB
330
2B6
100
AcDbEntity
  8
_U+30EC_U+30A4_U+30E4_U+30FC 1
 62
     7
370
    25
100
AcDbVertex
100
AcDb2dVertex
 10
91.48232512836098
 20
165.7214413546471
 30
0.0
  0
VERTEX
  5
2BC
330
2B6
100
AcDbEntity
  8
_U+30EC_U+30A4_U+30E4_U+30FC 1
 62
     7
370
    25
100
AcDbVertex
100
AcDb2dVertex
 10
92.85815630816568
 20
165.3192695204378
 30
0.0
  0
VERTEX
  5
2BD
330
2B6
100
AcDbEntity
  8
_U+30EC_U+30A4_U+30E4_U+30FC 1
 62
     7
370
    25
100
AcDbVertex
100
AcDb2dVertex
 10
94.29749567005628
 20
164.9594400629268
 30
0.0
  0
VERTEX
  5
2BE
330
2B6
100
AcDbEntity
  8
_U+30EC_U+30A4_U+30E4_U+30FC 1
 62
     7
370
    25
100
AcDbVertex
100
AcDb2dVertex
 10
95.77915587679848
 20
164.6631080215784
 30
0.0
  0
VERTEX
  5
2BF
330
2B6
100
AcDbEntity
  8
_U+30EC_U+30A4_U+30E4_U+30FC 1
 62
     7
370
    25
100
AcDbVertex
100
AcDb2dVertex
 10
97.3031584602391
 20
164.4514392017799
 30
0.0
  0
VERTEX
  5
2C0
330
2B6
100
AcDbEntity
  8
_U+30EC_U+30A4_U+30E4_U+30FC 1
 62
     7
370
    25
100
AcDbVertex
100
AcDb2dVertex
 10
98.82716104367971
 20
164.2821127586799
 30
0.0
  0
VERTEX
  5
2C1
330
2B6
100
AcDbEntity
  8
_U+30EC_U+30A4_U+30E4_U+30FC 1
 62
     7
370
    25
100
AcDbVertex
100
AcDb2dVertex
 10
100.3723294325078
 20
164.1974387712065
 30
0.0
  0
VERTEX
  5
2C2
330
2B6
100
AcDbEntity
  8
_U+30EC_U+30A4_U+30E4_U+30FC 1
 62
     7
370
    25
100
AcDbVertex
100
AcDb2dVertex
 10
101.9174870554126
 20
164.1551071604315
 30
0.0
  0
VERTEX
  5
2C3
330
2B6
100
AcDbEntity
  8
_U+30EC_U+30A4_U+30E4_U+30FC 1
 62
     7
370
    25
100
AcDbVertex
100
AcDb2dVertex
 10
103.4626554442407
 20
164.1974387712065
 30
0.0
  0
VERTEX
  5
2C4
330
2B6
100
AcDbEntity
  8
_U+30EC_U+30A4_U+30E4_U+30FC 1
 62
     7
370
    25
100
AcDbVertex
100
AcDb2dVertex
 10
105.0078238330688
 20
164.3032785640677
 30
0.0
  0
VERTEX
  5
2C5
330
2B6
100
AcDbEntity
  8
_U+30EC_U+30A4_U+30E4_U+30FC 1
 62
     7
370
    25
100
AcDbVertex
100
AcDb2dVertex
 10
106.5106606111219
 20
164.4726050071678
 30
0.0
  0
VERTEX
  5
2C6
330
2B6
100
AcDbEntity
  8
_U+30EC_U+30A4_U+30E4_U+30FC 1
 62
     7
370
    25
100
AcDbVertex
100
AcDb2dVertex
 10
107.9711550124766
 20
164.7266054377409
 30
0.0
  0
VERTEX
  5
2C7
330
2B6
100
AcDbEntity
  8
_U+30EC_U+30A4_U+30E4_U+30FC 1
 62
     7
370
    25
100
AcDbVertex
100
AcDb2dVertex
 10
109.4104943743672
 20
165.0229374790893
 30
0.0
  0
VERTEX
  5
2C8
330
2B6
100
AcDbEntity
  8
_U+30EC_U+30A4_U+30E4_U+30FC 1
 62
     7
370
    25
100
AcDbVertex
100
AcDb2dVertex
 10
110.7863255541719
 20
165.3827777025237
 30
0.0
  0
VERTEX
  5
2C9
330
2B6
100
AcDbEntity
  8
_U+30EC_U+30A4_U+30E4_U+30FC 1
 62
     7
370
    25
100
AcDbVertex
100
AcDb2dVertex
 10
112.1198251232016
 20
165.8061045761971
 30
0.0
  0
VERTEX
  5
2CA
330
2B6
100
AcDbEntity
  8
_U+30EC_U+30A4_U+30E4_U+30FC 1
 62
     7
370
    25
100
AcDbVertex
100
AcDb2dVertex
 10
113.3686614706813
 20
166.2929396319565
 30
0.0
  0
VERTEX
  5
2CB
330
2B6
100
AcDbEntity
  8
_U+30EC_U+30A4_U+30E4_U+30FC 1
 62
     7
370
    25
100
AcDbVertex
100
AcDb2dVertex
 10
114.553989636075
 20
166.8221062984909
 30
0.0
  0
VERTEX
  5
2CC
330
2B6
100
AcDbEntity
  8
_U+30EC_U+30A4_U+30E4_U+30FC 1
 62
     7
370
    25
100
AcDbVertex
100
AcDb2dVertex
 10
115.6546545799188
 20
167.4147703811878
 30
0.0
  0
VERTEX
  5
2CD
330
2B6
100
AcDbEntity
  8
_U+30EC_U+30A4_U+30E4_U+30FC 1
 62
     7
370
    25
100
AcDbVertex
100
AcDb2dVertex
 10
116.6706563022125
 20
168.049776840583
 30
0.0
  0
VERTEX
  5
2CE
330
2B6
100
AcDbEntity
  8
_U+30EC_U+30A4_U+30E4_U+30FC 1
 62
     7
370
    25
100
AcDbVertex
100
AcDb2dVertex
 10
117.6019948029563
 20
168.72710414483
 30
0.0
  0
VERTEX
  5
2CF
330
2B6
100
AcDbEntity
  8
_U+30EC_U+30A4_U+30E4_U+30FC 1
 62
     7
370
    25
100
AcDbVertex
100
AcDb2dVertex
 10
118.4274935108391
 20
169.4467738257752
 30
0.0
  0
VERTEX
  5
2D0
330
2B6
100
AcDbEntity
  8
_U+30EC_U+30A4_U+30E4_U+30FC 1
 62
     7
370
    25
100
AcDbVertex
100
AcDb2dVertex
 10
119.1259866204735
 20
170.1876093121081
 30
0.0
  0
VERTEX
  5
2D1
330
2B6
100
AcDbEntity
  8
_U+30EC_U+30A4_U+30E4_U+30FC 1
 62
     7
370
    25
100
AcDbVertex
100
AcDb2dVertex
 10
119.7398272744813
 20
170.9707764092159
 30
0.0
  0
VERTEX
  5
2D2
330
2B6
100
AcDbEntity
  8
_U+30EC_U+30A4_U+30E4_U+30FC 1
 62
     7
370
    25
100
AcDbVertex
100
AcDb2dVertex
 10
120.2478281356282
 20
171.7751093117112
 30
0.0
  0
VERTEX
  5
2D3
330
2B6
100
AcDbEntity
  8
_U+30EC_U+30A4_U+30E4_U+30FC 1
 62
     7
370
    25
100
AcDbVertex
100
AcDb2dVertex
 10
120.6288233985266
 20
172.6217738249815
 30
0.0
  0
VERTEX
  5
2D4
330
2B6
100
AcDbEntity
  8
_U+30EC_U+30A4_U+30E4_U+30FC 1
 62
     7
370
    25
100
AcDbVertex
100
AcDb2dVertex
 10
120.8828238291
 20
173.4684491041752
 30
0.0
  0
VERTEX
  5
2D5
330
2B6
100
AcDbEntity
  8
_U+30EC_U+30A4_U+30E4_U+30FC 1
 62
     7
370
    25
100
AcDbVertex
100
AcDb2dVertex
 10
121.0098294273485
 20
174.251616201283
 30
0.0
  0
SEQEND
  5
2D6
330
2B6
100
AcDbEntity
  8
_U+30EC_U+30A4_U+30E4_U+30FC 1
 62
     7
370
    25
  0
POLYLINE
  5
2D7
330
1F
100
AcDbEntity
  8
_U+30EC_U+30A4_U+30E4_U+30FC 1
 62
     7
370
    25
100
AcDb2dPolyline
 66
     1
 10
0.0
 20
0.0
 30
0.0
  0
VERTEX
  5
2D8
330
2D7
100
AcDbEntity
  8
_U+30EC_U+30A4_U+30E4_U+30FC 1
 62
     7
370
    25
100
AcDbVertex
100
AcDb2dVertex
 10
81.0683290066969
 20
175.4369551326002
 30
0.0
  0
VERTEX
  5
2D9
330
2D7
100
AcDbEntity
  8
_U+30EC_U+30A4_U+30E4_U+30FC 1
 62
     7
370
    25
100
AcDbVertex
100
AcDb2dVertex
 10
81.11066061747191
 20
175.0347832983908
 30
0.0
  0
VERTEX
  5
2DA
330
2D7
100
AcDbEntity
  8
_U+30EC_U+30A4_U+30E4_U+30FC 1
 62
     7
370
    25
100
AcDbVertex
100
AcDb2dVertex
 10
81.25882663814613
 20
174.166952979733
 30
0.0
  0
VERTEX
  5
2DB
330
2D7
100
AcDbEntity
  8
_U+30EC_U+30A4_U+30E4_U+30FC 1
 62
     7
370
    25
100
AcDbVertex
100
AcDb2dVertex
 10
81.53399287410707
 20
173.3202777005393
 30
0.0
  0
VERTEX
  5
2DC
330
2D7
100
AcDbEntity
  8
_U+30EC_U+30A4_U+30E4_U+30FC 1
 62
     7
370
    25
100
AcDbVertex
100
AcDb2dVertex
 10
81.93616470831641
 20
172.473613187269
 30
0.0
  0
VERTEX
  5
2DD
330
2D7
100
AcDbEntity
  8
_U+30EC_U+30A4_U+30E4_U+30FC 1
 62
     7
370
    25
100
AcDbVertex
100
AcDb2dVertex
 10
82.44416018650159
 20
171.6481037134628
 30
0.0
  0
VERTEX
  5
2DE
330
2D7
100
AcDbEntity
  8
_U+30EC_U+30A4_U+30E4_U+30FC 1
 62
     7
370
    25
100
AcDbVertex
100
AcDb2dVertex
 10
83.05799545754768
 20
170.8437708109674
 30
0.0
  0
VERTEX
  5
2DF
330
2D7
100
AcDbEntity
  8
_U+30EC_U+30A4_U+30E4_U+30FC 1
 62
     7
370
    25
100
AcDbVertex
100
AcDb2dVertex
 10
83.79883094388049
 20
170.0606037138596
 30
0.0
  0
VERTEX
  5
2E0
330
2D7
100
AcDbEntity
  8
_U+30EC_U+30A4_U+30E4_U+30FC 1
 62
     7
370
    25
100
AcDbVertex
100
AcDb2dVertex
 10
84.6243296517633
 20
169.3197789934502
 30
0.0
  0
VERTEX
  5
2E1
330
2D7
100
AcDbEntity
  8
_U+30EC_U+30A4_U+30E4_U+30FC 1
 62
     7
370
    25
100
AcDbVertex
100
AcDb2dVertex
 10
85.55566276954534
 20
168.6001093125049
 30
0.0
  0
VERTEX
  5
2E2
330
2D7
100
AcDbEntity
  8
_U+30EC_U+30A4_U+30E4_U+30FC 1
 62
     7
370
    25
100
AcDbVertex
100
AcDb2dVertex
 10
86.57166449183907
 20
167.9227712423346
 30
0.0
  0
SEQEND
  5
2E3
330
2D7
100
AcDbEntity
  8
_U+30EC_U+30A4_U+30E4_U+30FC 1
 62
     7
370
    25
  0
POLYLINE
  5
2E4
330
1F
100
AcDbEntity
  8
_U+30EC_U+30A4_U+30E4_U+30FC 1
 62
   252
370
    25
100
AcDb2dPolyline
 66
     1
 10
0.0
 20
0.0
 30
0.0
  0
VERTEX
  5
2E5
330
2E4
100
AcDbEntity
  8
_U+30EC_U+30A4_U+30E4_U+30FC 1
 62
   252
370
    25
100
AcDbVertex
100
AcDb2dVertex
 10
122.3221631909907
 20
195.7781015542456
 30
0.0
  0
VERTEX
  5
2E6
330
2E4
100
AcDbEntity
  8
_U+30EC_U+30A4_U+30E4_U+30FC 1
 62
   252
370
    25
100
AcDbVertex
100
AcDb2dVertex
 10
122.3009866196797
 20
196.0321127507424
 30
0.0
  0
VERTEX
  5
2E7
330
2E4
100
AcDbEntity
  8
_U+30EC_U+30A4_U+30E4_U+30FC 1
 62
   252
370
    25
100
AcDbVertex
100
AcDb2dVertex
 10
122.1528259819672
 20
196.3284555580142
 30
0.0
  0
VERTEX
  5
2E8
330
2E4
100
AcDbEntity
  8
_U+30EC_U+30A4_U+30E4_U+30FC 1
 62
   252
370
    25
100
AcDbVertex
100
AcDb2dVertex
 10
121.8776597460063
 20
196.6247768334393
 30
0.0
  0
VERTEX
  5
2E9
330
2E4
100
AcDbEntity
  8
_U+30EC_U+30A4_U+30E4_U+30FC 1
 62
   252
370
    25
100
AcDbVertex
100
AcDb2dVertex
 10
121.5178302884953
 20
196.8576222245486
 30
0.0
  0
VERTEX
  5
2EA
330
2E4
100
AcDbEntity
  8
_U+30EC_U+30A4_U+30E4_U+30FC 1
 62
   252
370
    25
100
AcDbVertex
100
AcDb2dVertex
 10
121.073326843511
 20
197.0692802784237
 30
0.0
  0
VERTEX
  5
2EB
330
2E4
100
AcDbEntity
  8
_U+30EC_U+30A4_U+30E4_U+30FC 1
 62
   252
370
    25
100
AcDbVertex
100
AcDb2dVertex
 10
120.5441601769766
 20
197.1962751107487
 30
0.0
  0
VERTEX
  5
2EC
330
2E4
100
AcDbEntity
  8
_U+30EC_U+30A4_U+30E4_U+30FC 1
 62
   252
370
    25
100
AcDbVertex
100
AcDb2dVertex
 10
120.1419883427672
 20
197.2597725269112
 30
0.0
  0
SEQEND
  5
2ED
330
2E4
100
AcDbEntity
  8
_U+30EC_U+30A4_U+30E4_U+30FC 1
 62
   252
370
    25
  0
POLYLINE
  5
2EE
330
1F
100
AcDbEntity
  8
_U+30EC_U+30A4_U+30E4_U+30FC 1
 62
   252
370
    25
100
AcDb2dPolyline
 66
     1
 10
0.0
 20
0.0
 30
0.0
  0
VERTEX
  5
2EF
330
2EE
100
AcDbEntity
  8
_U+30EC_U+30A4_U+30E4_U+30FC 1
 62
   252
370
    25
100
AcDbVertex
100
AcDb2dVertex
 10
114.9349956648969
 20
200.2654460830174
 30
0.0
  0
VERTEX
  5
2F0
330
2EE
100
AcDbEntity
  8
_U+30EC_U+30A4_U+30E4_U+30FC 1
 62
   252
370
    25
100
AcDbVertex
100
AcDb2dVertex
 10
114.8926640541219
 20
200.5194357476675
 30
0.0
  0
VERTEX
  5
2F1
330
2EE
100
AcDbEntity
  8
_U+30EC_U+30A4_U+30E4_U+30FC 1
 62
   252
370
    25
100
AcDbVertex
100
AcDb2dVertex
 10
114.744492650486
 20
200.8369443603268
 30
0.0
  0
VERTEX
  5
2F2
330
2EE
100
AcDbEntity
  8
_U+30EC_U+30A4_U+30E4_U+30FC 1
 62
   252
370
    25
100
AcDbVertex
100
AcDb2dVertex
 10
114.469326414525
 20
201.1121213622111
 30
0.0
  0
VERTEX
  5
2F3
330
2EE
100
AcDbEntity
  8
_U+30EC_U+30A4_U+30E4_U+30FC 1
 62
   252
370
    25
100
AcDbVertex
100
AcDb2dVertex
 10
114.1094969570141
 20
201.3661110268612
 30
0.0
  0
VERTEX
  5
2F4
330
2EE
100
AcDbEntity
  8
_U+30EC_U+30A4_U+30E4_U+30FC 1
 62
   252
370
    25
100
AcDbVertex
100
AcDb2dVertex
 10
113.6649935120297
 20
201.5566032753487
 30
0.0
  0
VERTEX
  5
2F5
330
2EE
100
AcDbEntity
  8
_U+30EC_U+30A4_U+30E4_U+30FC 1
 62
   252
370
    25
100
AcDbVertex
100
AcDb2dVertex
 10
113.1569926508829
 20
201.704785444908
 30
0.0
  0
VERTEX
  5
2F6
330
2EE
100
AcDbEntity
  8
_U+30EC_U+30A4_U+30E4_U+30FC 1
 62
   252
370
    25
100
AcDbVertex
100
AcDb2dVertex
 10
112.606660178961
 20
201.7682828610705
 30
0.0
  0
VERTEX
  5
2F7
330
2EE
100
AcDbEntity
  8
_U+30EC_U+30A4_U+30E4_U+30FC 1
 62
   252
370
    25
100
AcDbVertex
100
AcDb2dVertex
 10
112.0351619016516
 20
201.789448666458
 30
0.0
  0
VERTEX
  5
2F8
330
2EE
100
AcDbEntity
  8
_U+30EC_U+30A4_U+30E4_U+30FC 1
 62
   252
370
    25
100
AcDbVertex
100
AcDb2dVertex
 10
111.4848294297297
 20
201.7259512502955
 30
0.0
  0
VERTEX
  5
2F9
330
2EE
100
AcDbEntity
  8
_U+30EC_U+30A4_U+30E4_U+30FC 1
 62
   252
370
    25
100
AcDbVertex
100
AcDb2dVertex
 10
110.9768285685828
 20
201.5989348861237
 30
0.0
  0
VERTEX
  5
2FA
330
2EE
100
AcDbEntity
  8
_U+30EC_U+30A4_U+30E4_U+30FC 1
 62
   252
370
    25
100
AcDbVertex
100
AcDb2dVertex
 10
110.5323251235985
 20
201.4296084430237
 30
0.0
  0
SEQEND
  5
2FB
330
2EE
100
AcDbEntity
  8
_U+30EC_U+30A4_U+30E4_U+30FC 1
 62
   252
370
    25
  0
SPLINE
  5
2FC
330
1F
100
AcDbEntity
  8
_U+30EC_U+30A4_U+30E4_U+30FC 1
 62
   252
370
    25
100
AcDbSpline
210
0.0
220
0.0
230
1.0
 70
     8
 71
     3
 72
    20
 73
    16
 74
     0
 42
0.0000000001
 43
0.0000000001
 12
1.0
 22
0.0
 32
0.0
 13
1.0
 23
0.0
 33
0.0
 40
0.0
 40
0.0
 40
0.0
 40
0.0
 40
1.0
 40
1.0
 40
1.0
 40
2.0
 40
2.0
 40
2.0
 40
3.0
 40
3.0
 40
3.0
 40
4.0
 40
4.0
 40
4.0
 40
5.0
 40
5.0
 40
5.0
 40
5.0
 10
120.2901597464032
 20
188.4332871707736
 30
0.0
 10
120.3604289283789
 20
188.3909555599986
 30
0.0
 10
120.4239263445414
 20
188.3486024173768
 30
0.0
 10
120.4806627608141
 20
188.3062708066018
 30
0.0
 10
120.5509319427898
 20
188.2639391958268
 30
0.0
 10
120.6144293589523
 20
188.2072027795541
 30
0.0
 10
120.6711550093016
 20
188.1369443635018
 30
0.0
 10
120.7414241912773
 20
188.0802079472291
 30
0.0
 10
120.79816060755
 20
188.0234930628032
 30
0.0
 10
120.840492218325
 20
187.9676179204018
 30
0.0
 10
120.8828238291
 20
187.9108815041291
 30
0.0
 10
120.9183836740619
 20
187.8617888934643
 30
0.0
 10
120.9463212452626
 20
187.8194357508424
 30
0.0
 10
120.9742588164632
 20
187.7906476716938
 30
0.0
 10
121.0030576615353
 20
187.7559383346799
 30
0.0
 10
121.030995232736
 20
187.7136067239049
 30
0.0
  0
SPLINE
  5
2FD
330
1F
100
AcDbEntity
  8
_U+30EC_U+30A4_U+30E4_U+30FC 1
 62
   252
370
    25
100
AcDbSpline
210
0.0
220
0.0
230
1.0
 70
     8
 71
     3
 72
    26
 73
    22
 74
     0
 42
0.0000000001
 43
0.0000000001
 12
1.0
 22
0.0
 32
0.0
 13
1.0
 23
0.0
 33
0.0
 40
0.0
 40
0.0
 40
0.0
 40
0.0
 40
1.0
 40
1.0
 40
1.0
 40
2.0
 40
2.0
 40
2.0
 40
3.0
 40
3.0
 40
3.0
 40
4.0
 40
4.0
 40
4.0
 40
5.0
 40
5.0
 40
5.0
 40
6.0
 40
6.0
 40
6.0
 40
7.0
 40
7.0
 40
7.0
 40
7.0
 10
119.3164896348844
 20
188.4756187815486
 30
0.0
 10
119.3308836744587
 20
188.5035455868259
 30
0.0
 10
119.3520602457696
 20
188.53149392395
 30
0.0
 10
119.3799870510469
 20
188.5602820030986
 30
0.0
 10
119.4079246222476
 20
188.588208808376
 30
0.0
 10
119.4367234673196
 20
188.6093746137635
 30
0.0
 10
119.4646610385203
 20
188.6237794192612
 30
0.0
 10
119.5069926492954
 20
188.6373229508876
 30
0.0
 10
119.5493242600703
 20
188.6449452246487
 30
0.0
 10
119.5916558708454
 20
188.6449452246487
 30
0.0
 10
119.6339874816204
 20
188.6449452246487
 30
0.0
 10
119.6830908582086
 20
188.6449452246487
 30
0.0
 10
119.7398272744813
 20
188.6449452246487
 30
0.0
 10
119.7965529248306
 20
188.630540419151
 30
0.0
 10
119.8600503409931
 20
188.6161571455
 30
0.0
 10
119.9303302888922
 20
188.6026136138737
 30
0.0
 10
119.9870559392415
 20
188.573825534725
 30
0.0
 10
120.0429310816429
 20
188.545877197601
 30
0.0
 10
120.0996567319922
 20
188.5179503923237
 30
0.0
 10
120.1563931482649
 20
188.489162313175
 30
0.0
 10
120.2198905644275
 20
188.4612139760509
 30
0.0
 10
120.2901597464032
 20
188.4332871707736
 30
0.0
  0
SPLINE
  5
2FE
330
1F
100
AcDbEntity
  8
_U+30EC_U+30A4_U+30E4_U+30FC 1
 62
   252
370
    25
100
AcDbSpline
210
0.0
220
0.0
230
1.0
 70
     8
 71
     3
 72
    26
 73
    22
 74
     0
 42
0.0000000001
 43
0.0000000001
 12
1.0
 22
0.0
 32
0.0
 13
1.0
 23
0.0
 33
0.0
 40
0.0
 40
0.0
 40
0.0
 40
0.0
 40
1.0
 40
1.0
 40
1.0
 40
2.0
 40
2.0
 40
2.0
 40
3.0
 40
3.0
 40
3.0
 40
4.0
 40
4.0
 40
4.0
 40
5.0
 40
5.0
 40
5.0
 40
6.0
 40
6.0
 40
6.0
 40
7.0
 40
7.0
 40
7.0
 40
7.0
 10
120.3959887733407
 20
188.1792759742768
 30
0.0
 10
120.3536571625657
 20
188.2072027795541
 30
0.0
 10
120.3045537859775
 20
188.2351511166782
 30
0.0
 10
120.2478281356282
 20
188.2639391958268
 30
0.0
 10
120.2054965248531
 20
188.2774827274532
 30
0.0
 10
120.1699259139679
 20
188.2918660011041
 30
0.0
 10
120.1419883427672
 20
188.3062708066018
 30
0.0
 10
120.1140507715665
 20
188.3198143382282
 30
0.0
 10
120.0784909266047
 20
188.3274366119893
 30
0.0
 10
120.0361593158297
 20
188.3274366119893
 30
0.0
 10
120.008221744629
 20
188.3409801436157
 30
0.0
 10
119.979422899557
 20
188.3486024173768
 30
0.0
 10
119.9514960942797
 20
188.3486024173768
 30
0.0
 10
119.923558523079
 20
188.3486024173768
 30
0.0
 10
119.9023927176915
 20
188.3409801436157
 30
0.0
 10
119.8879879121938
 20
188.3274366119893
 30
0.0
 10
119.8600503409931
 20
188.3274366119893
 30
0.0
 10
119.8312622618445
 20
188.3274366119893
 30
0.0
 10
119.8033246906438
 20
188.3274366119893
 30
0.0
 10
119.7753871194431
 20
188.3130318064916
 30
0.0
 10
119.7542213140556
 20
188.3062708066018
 30
0.0
 10
119.7398272744813
 20
188.3062708066018
 30
0.0
  0
POLYLINE
  5
2FF
330
1F
100
AcDbEntity
  8
_U+30EC_U+30A4_U+30E4_U+30FC 1
 62
   252
370
    25
100
AcDb2dPolyline
 66
     1
 10
0.0
 20
0.0
 30
0.0
  0
VERTEX
  5
300
330
2FF
100
AcDbEntity
  8
_U+30EC_U+30A4_U+30E4_U+30FC 1
 62
   252
370
    25
100
AcDbVertex
100
AcDb2dVertex
 10
120.79816060755
 20
187.8406230880767
 30
0.0
  0
VERTEX
  5
301
330
2FF
100
AcDbEntity
  8
_U+30EC_U+30A4_U+30E4_U+30FC 1
 62
   252
370
    25
100
AcDbVertex
100
AcDb2dVertex
 10
120.3959887733407
 20
188.1792759742768
 30
0.0
  0
SEQEND
  5
302
330
2FF
100
AcDbEntity
  8
_U+30EC_U+30A4_U+30E4_U+30FC 1
 62
   252
370
    25
  0
POLYLINE
  5
303
330
1F
100
AcDbEntity
  8
_U+30EC_U+30A4_U+30E4_U+30FC 1
 62
   252
370
    25
100
AcDb2dPolyline
 66
     1
 10
0.0
 20
0.0
 30
0.0
  0
VERTEX
  5
304
330
303
100
AcDbEntity
  8
_U+30EC_U+30A4_U+30E4_U+30FC 1
 62
   252
370
    25
100
AcDbVertex
100
AcDb2dVertex
 10
108.3098294305235
 20
201.3449452214737
 30
0.0
  0
VERTEX
  5
305
330
303
100
AcDbEntity
  8
_U+30EC_U+30A4_U+30E4_U+30FC 1
 62
   252
370
    25
100
AcDbVertex
100
AcDb2dVertex
 10
108.0769948053375
 20
201.4084426376362
 30
0.0
  0
SEQEND
  5
306
330
303
100
AcDbEntity
  8
_U+30EC_U+30A4_U+30E4_U+30FC 1
 62
   252
370
    25
  0
MTEXT
  5
307
330
1F
100
AcDbEntity
  8
_U+30EC_U+30A4_U+30E4_U+30FC 1
 62
     7
100
AcDbMText
 10
158.9595356287633
 20
79.51153181514694
 30
0.0
 40
2.9971999992507
 41
0.0
 71
     7
 72
     1
  1
\fArial|b0|i0|c0|p34;\W1;HBH-D03-UTC
 73
     1
 44
1.0
  0
ENDSEC
  0
SECTION
  2
OBJECTS
  0
DICTIONARY
  5
C
330
0
100
AcDbDictionary
281
     1
  3
ACAD_GROUP
350
D
  3
ACAD_LAYOUT
350
1A
  3
ACAD_MATERIAL
350
3B
  3
ACAD_MLEADERSTYLE
350
30A
  3
ACAD_MLINESTYLE
350
17
  3
ACAD_PLOTSETTINGS
350
19
  3
ACAD_PLOTSTYLENAME
350
E
  3
ACAD_VISUALSTYLE
350
2A
  3
AcDbVariableDictionary
350
308
  0
DICTIONARY
  5
D
102
{ACAD_REACTORS
330
C
102
}
330
C
100
AcDbDictionary
281
     1
  0
DICTIONARY
  5
1A
102
{ACAD_REACTORS
330
C
102
}
330
C
100
AcDbDictionary
281
     1
  3
Layout1
350
1E
  3
Layout2
350
26
  3
Model
350
22
  0
DICTIONARY
  5
3B
102
{ACAD_REACTORS
330
C
102
}
330
C
100
AcDbDictionary
281
     1
  3
ByBlock
350
3D
  3
ByLayer
350
3C
  3
Global
350
3E
  0
DICTIONARY
  5
30A
102
{ACAD_REACTORS
330
C
102
}
330
C
100
AcDbDictionary
281
     1
  0
DICTIONARY
  5
17
102
{ACAD_REACTORS
330
C
102
}
330
C
100
AcDbDictionary
281
     1
  3
Standard
350
18
  0
DICTIONARY
  5
19
102
{ACAD_REACTORS
330
C
102
}
330
C
100
AcDbDictionary
281
     1
  0
ACDBDICTIONARYWDFLT
  5
E
102
{ACAD_REACTORS
330
C
102
}
330
C
100
AcDbDictionary
281
     1
  3
Normal
350
F
100
AcDbDictionaryWithDefault
340
F
  0
DICTIONARY
  5
2A
102
{ACAD_REACTORS
330
C
102
}
330
C
100
AcDbDictionary
281
     1
  3
2dWireframe
350
2F
  3
3D Hidden
350
31
  3
3dWireframe
350
30
  3
Basic
350
32
  3
Brighten
350
36
  3
ColorChange
350
3A
  3
Conceptual
350
34
  3
Dim
350
35
  3
Facepattern
350
39
  3
Flat
350
2B
  3
FlatWithEdges
350
2C
  3
Gouraud
350
2D
  3
GouraudWithEdges
350
2E
  3
Linepattern
350
38
  3
Realistic
350
33
  3
Thicken
350
37
  0
DICTIONARY
  5
308
102
{ACAD_REACTORS
330
C
102
}
330
C
100
AcDbDictionary
281
     1
  3
DIMASSOC
350
30B
  3
HIDETEXT
350
30C
  0
LAYOUT
  5
1E
102
{ACAD_REACTORS
330
1A
102
}
330
1A
100
AcDbPlotSettings
  1

  2
none_device
  4

  6

 40
0.0
 41
0.0
 42
0.0
 43
0.0
 44
0.0
 45
0.0
 46
0.0
 47
0.0
 48
0.0
 49
0.0
140
0.0
141
0.0
142
1.0
143
1.0
 70
   688
 72
     0
 73
     0
 74
     5
  7

 75
    16
147
1.0
148
0.0
149
0.0
100
AcDbLayout
  1
Layout1
 70
     1
 71
     1
 10
0.0
 20
0.0
 11
12.0
 21
9.0
 12
0.0
 22
0.0
 32
0.0
 14
1.000000000000000E+20
 24
1.000000000000000E+20
 34
1.000000000000000E+20
 15
-1.000000000000000E+20
 25
-1.000000000000000E+20
 35
-1.000000000000000E+20
146
0.0
 13
0.0
 23
0.0
 33
0.0
 16
1.0
 26
0.0
 36
0.0
 17
0.0
 27
1.0
 37
0.0
 76
     0
330
1B
  0
LAYOUT
  5
26
102
{ACAD_REACTORS
330
1A
102
}
330
1A
100
AcDbPlotSettings
  1

  2
none_device
  4

  6

 40
0.0
 41
0.0
 42
0.0
 43
0.0
 44
0.0
 45
0.0
 46
0.0
 47
0.0
 48
0.0
 49
0.0
140
0.0
141
0.0
142
1.0
143
1.0
 70
   688
 72
     0
 73
     0
 74
     5
  7

 75
    16
147
1.0
148
0.0
149
0.0
100
AcDbLayout
  1
Layout2
 70
     1
 71
     2
 10
0.0
 20
0.0
 11
0.0
 21
0.0
 12
0.0
 22
0.0
 32
0.0
 14
0.0
 24
0.0
 34
0.0
 15
0.0
 25
0.0
 35
0.0
146
0.0
 13
0.0
 23
0.0
 33
0.0
 16
1.0
 26
0.0
 36
0.0
 17
0.0
 27
1.0
 37
0.0
 76
     0
330
23
  0
LAYOUT
  5
22
102
{ACAD_REACTORS
330
1A
102
}
330
1A
100
AcDbPlotSettings
  1

  2
none_device
  4

  6

 40
0.0
 41
0.0
 42
0.0
 43
0.0
 44
0.0
 45
0.0
 46
0.0
 47
0.0
 48
0.0
 49
0.0
140
0.0
141
0.0
142
1.0
143
1.0
 70
  1712
 72
     0
 73
     0
 74
     0
  7

 75
     0
147
1.0
148
0.0
149
0.0
100
AcDbLayout
  1
Model
 70
     1
 71
     0
 10
0.0
 20
0.0
 11
12.0
 21
9.0
 12
0.0
 22
0.0
 32
0.0
 14
1.000000000000000E+20
 24
1.000000000000000E+20
 34
1.000000000000000E+20
 15
-1.000000000000000E+20
 25
-1.000000000000000E+20
 35
-1.000000000000000E+20
146
0.0
 13
0.0
 23
0.0
 33
0.0
 16
1.0
 26
0.0
 36
0.0
 17
0.0
 27
1.0
 37
0.0
 76
     0
330
1F
331
29
  0
MATERIAL
  5
3D
102
{ACAD_REACTORS
330
3B
102
}
102
{ACAD_XDICTIONARY
360
32F
102
}
330
3B
100
AcDbMaterial
  1
ByBlock
  0
MATERIAL
  5
3C
102
{ACAD_REACTORS
330
3B
102
}
102
{ACAD_XDICTIONARY
360
32D
102
}
330
3B
100
AcDbMaterial
  1
ByLayer
  0
MATERIAL
  5
3E
102
{ACAD_REACTORS
330
3B
102
}
102
{ACAD_XDICTIONARY
360
331
102
}
330
3B
100
AcDbMaterial
  1
Global
  0
MLINESTYLE
  5
18
102
{ACAD_REACTORS
330
17
102
}
330
17
100
AcDbMlineStyle
  2
Standard
 70
     0
  3

 62
   256
 51
90.0
 52
90.0
 71
     2
 49
0.5
 62
   256
  6
BYLAYER
 49
-0.5
 62
   256
  6
BYLAYER
  0
ACDBPLACEHOLDER
  5
F
102
{ACAD_REACTORS
330
E
102
}
330
E
  0
VISUALSTYLE
  5
2F
102
{ACAD_REACTORS
330
2A
102
}
102
{ACAD_XDICTIONARY
360
315
102
}
330
2A
100
AcDbVisualStyle
  2
2dWireframe
 70
     4
 71
     0
 72
     2
 73
     0
 90
        0
 40
-0.6
 41
-30.0
 62
     5
 63
     7
 74
     1
 91
        4
 64
     7
 65
   257
 75
     1
175
     1
 42
1.0
 92
        0
 66
   257
 43
1.0
 76
     1
 77
     6
 78
     2
 67
     7
 79
     5
170
     0
171
     0
290
     0
174
     0
 93
        1
 44
0.0
173
     0
291
     0
 45
0.0
1001
ACAD
1000
AcDbSavedByObjectVersion
1070
     0
  0
VISUALSTYLE
  5
31
102
{ACAD_REACTORS
330
2A
102
}
102
{ACAD_XDICTIONARY
360
319
102
}
330
2A
100
AcDbVisualStyle
  2
3D Hidden
 70
     6
 71
     1
 72
     2
 73
     2
 90
        0
 40
-0.6
 41
-30.0
 62
     5
 63
     7
 74
     2
 91
        2
 64
     7
 65
   257
 75
     2
175
     1
 42
40.0
 92
        0
 66
   257
 43
1.0
 76
     1
 77
     6
 78
     2
 67
     7
 79
     3
170
     0
171
     0
290
     0
174
     0
 93
        1
 44
0.0
173
     0
291
     0
 45
0.0
1001
ACAD
1000
AcDbSavedByObjectVersion
1070
     0
  0
VISUALSTYLE
  5
30
102
{ACAD_REACTORS
330
2A
102
}
102
{ACAD_XDICTIONARY
360
317
102
}
330
2A
100
AcDbVisualStyle
  2
3dWireframe
 70
     5
 71
     0
 72
     2
 73
     0
 90
        0
 40
-0.6
 41
-30.0
 62
     5
 63
     7
 74
     1
 91
        4
 64
     7
 65
   257
 75
     1
175
     1
 42
1.0
 92
        0
 66
   257
 43
1.0
 76
     1
 77
     6
 78
     2
 67
     7
 79
     5
170
     0
171
     0
290
     0
174
     0
 93
        1
 44
0.0
173
     0
291
     0
 45
0.0
1001
ACAD
1000
AcDbSavedByObjectVersion
1070
     0
  0
VISUALSTYLE
  5
32
102
{ACAD_REACTORS
330
2A
102
}
102
{ACAD_XDICTIONARY
360
31B
102
}
330
2A
100
AcDbVisualStyle
  2
Basic
 70
     7
 71
     1
 72
     0
 73
     1
 90
        0
 40
-0.6
 41
-30.0
 62
     5
 63
     7
 74
     0
 91
        4
 64
     7
 65
   257
 75
     1
175
     1
 42
1.0
 92
        8
 66
     7
 43
1.0
 76
     1
 77
     6
 78
     2
 67
     7
 79
     5
170
     0
171
     0
290
     0
174
     0
 93
        1
 44
0.0
173
     0
291
     1
 45
0.0
1001
ACAD
1000
AcDbSavedByObjectVersion
1070
     0
  0
VISUALSTYLE
  5
36
102
{ACAD_REACTORS
330
2A
102
}
102
{ACAD_XDICTIONARY
360
323
102
}
330
2A
100
AcDbVisualStyle
  2
Brighten
 70
    12
 71
     2
 72
     2
 73
     0
 90
        0
 40
-0.6
 41
-30.0
 62
     5
 63
     7
 74
     1
 91
        4
 64
     7
 65
   257
 75
     1
175
     1
 42
1.0
 92
        8
 66
     7
 43
1.0
 76
     1
 77
     6
 78
     2
 67
     7
 79
     5
170
     0
171
     0
290
     0
174
     0
 93
        1
 44
50.0
173
     0
291
     1
 45
0.0
1001
ACAD
1000
AcDbSavedByObjectVersion
1070
     0
  0
VISUALSTYLE
  5
3A
102
{ACAD_REACTORS
330
2A
102
}
102
{ACAD_XDICTIONARY
360
32B
102
}
330
2A
100
AcDbVisualStyle
  2
ColorChange
 70
    16
 71
     2
 72
     2
 73
     3
 90
        0
 40
-0.6
 41
-30.0
 62
     5
 63
     8
 74
     1
 91
        4
 64
     7
 65
   257
 75
     1
175
     1
 42
1.0
 92
        8
 66
     8
 43
1.0
 76
     1
 77
     6
 78
     2
 67
     7
 79
     5
170
     0
171
     0
290
     0
174
     0
 93
        1
 44
0.0
173
     0
291
     1
 45
0.0
1001
ACAD
1000
AcDbSavedByObjectVersion
1070
     0
  0
VISUALSTYLE
  5
34
102
{ACAD_REACTORS
330
2A
102
}
102
{ACAD_XDICTIONARY
360
31F
102
}
330
2A
100
AcDbVisualStyle
  2
Conceptual
 70
     9
 71
     3
 72
     2
 73
     0
 90
        0
 40
-0.6
 41
-30.0
 62
     5
 63
     7
 74
     2
 91
        2
 64
     7
 65
   257
 75
     1
175
     1
 42
40.0
 92
        8
 66
     7
 43
1.0
 76
     1
 77
     6
 78
     2
 67
     7
 79
     3
170
     0
171
     0
290
     0
174
     0
 93
        1
 44
0.0
173
     0
291
     0
 45
0.0
1001
ACAD
1000
AcDbSavedByObjectVersion
1070
     0
  0
VISUALSTYLE
  5
35
102
{ACAD_REACTORS
330
2A
102
}
102
{ACAD_XDICTIONARY
360
321
102
}
330
2A
100
AcDbVisualStyle
  2
Dim
 70
    11
 71
     2
 72
     2
 73
     0
 90
        0
 40
-0.6
 41
-30.0
 62
     5
 63
     7
 74
     1
 91
        4
 64
     7
 65
   257
 75
     1
175
     1
 42
1.0
 92
        8
 66
     7
 43
1.0
 76
     1
 77
     6
 78
     2
 67
     7
 79
     5
170
     0
171
     0
290
     0
174
     0
 93
        1
 44
-50.0
173
     0
291
     1
 45
0.0
1001
ACAD
1000
AcDbSavedByObjectVersion
1070
     0
  0
VISUALSTYLE
  5
39
102
{ACAD_REACTORS
330
2A
102
}
102
{ACAD_XDICTIONARY
360
329
102
}
330
2A
100
AcDbVisualStyle
  2
Facepattern
 70
    15
 71
     2
 72
     2
 73
     0
 90
        0
 40
-0.6
 41
-30.0
 62
     5
 63
     7
 74
     1
 91
        4
 64
     7
 65
   257
 75
     1
175
     1
 42
1.0
 92
        8
 66
     7
 43
1.0
 76
     1
 77
     6
 78
     2
 67
     7
 79
     5
170
     0
171
     0
290
     0
174
     0
 93
        1
 44
0.0
173
     0
291
     1
 45
0.0
1001
ACAD
1000
AcDbSavedByObjectVersion
1070
     0
  0
VISUALSTYLE
  5
2B
102
{ACAD_REACTORS
330
2A
102
}
102
{ACAD_XDICTIONARY
360
30D
102
}
330
2A
100
AcDbVisualStyle
  2
Flat
 70
     0
 71
     2
 72
     1
 73
     1
 90
        2
 40
-0.6
 41
30.0
 62
     5
 63
     7
 74
     0
 91
        4
 64
     7
 65
   257
 75
     1
175
     1
 42
1.0
 92
        8
 66
     7
 43
1.0
 76
     1
 77
     6
 78
     2
 67
     7
 79
     5
170
     0
171
     0
290
     0
174
     0
 93
       13
 44
0.0
173
     0
291
     1
 45
0.0
1001
ACAD
1000
AcDbSavedByObjectVersion
1070
     0
  0
VISUALSTYLE
  5
2C
102
{ACAD_REACTORS
330
2A
102
}
102
{ACAD_XDICTIONARY
360
30F
102
}
330
2A
100
AcDbVisualStyle
  2
FlatWithEdges
 70
     1
 71
     2
 72
     1
 73
     1
 90
        2
 40
-0.6
 41
30.0
 62
     5
 63
     7
 74
     1
 91
        4
 64
     7
 65
   257
 75
     1
175
     1
 42
1.0
 92
        0
 66
   257
 43
1.0
 76
     1
 77
     6
 78
     2
 67
     7
 79
     5
170
     0
171
     0
290
     0
174
     0
 93
       13
 44
0.0
173
     0
291
     1
 45
0.0
1001
ACAD
1000
AcDbSavedByObjectVersion
1070
     0
  0
VISUALSTYLE
  5
2D
102
{ACAD_REACTORS
330
2A
102
}
102
{ACAD_XDICTIONARY
360
311
102
}
330
2A
100
AcDbVisualStyle
  2
Gouraud
 70
     2
 71
     2
 72
     2
 73
     1
 90
        2
 40
-0.6
 41
30.0
 62
     5
 63
     7
 74
     0
 91
        4
 64
     7
 65
   257
 75
     1
175
     1
 42
1.0
 92
        0
 66
     7
 43
1.0
 76
     1
 77
     6
 78
     2
 67
     7
 79
     5
170
     0
171
     0
290
     0
174
     0
 93
       13
 44
0.0
173
     0
291
     1
 45
0.0
1001
ACAD
1000
AcDbSavedByObjectVersion
1070
     0
  0
VISUALSTYLE
  5
2E
102
{ACAD_REACTORS
330
2A
102
}
102
{ACAD_XDICTIONARY
360
313
102
}
330
2A
100
AcDbVisualStyle
  2
GouraudWithEdges
 70
     3
 71
     2
 72
     2
 73
     1
 90
        2
 40
-0.6
 41
30.0
 62
     5
 63
     7
 74
     1
 91
        4
 64
     7
 65
   257
 75
     1
175
     1
 42
1.0
 92
        0
 66
   257
 43
1.0
 76
     1
 77
     6
 78
     2
 67
     7
 79
     5
170
     0
171
     0
290
     0
174
     0
 93
       13
 44
0.0
173
     0
291
     1
 45
0.0
1001
ACAD
1000
AcDbSavedByObjectVersion
1070
     0
  0
VISUALSTYLE
  5
38
102
{ACAD_REACTORS
330
2A
102
}
102
{ACAD_XDICTIONARY
360
327
102
}
330
2A
100
AcDbVisualStyle
  2
Linepattern
 70
    14
 71
     2
 72
     2
 73
     0
 90
        0
 40
-0.6
 41
-30.0
 62
     5
 63
     7
 74
     1
 91
        4
 64
     7
 65
   257
 75
     7
175
     7
 42
1.0
 92
        8
 66
     7
 43
1.0
 76
     1
 77
     6
 78
     2
 67
     7
 79
     5
170
     0
171
     0
290
     0
174
     0
 93
        1
 44
0.0
173
     0
291
     1
 45
0.0
1001
ACAD
1000
AcDbSavedByObjectVersion
1070
     0
  0
VISUALSTYLE
  5
33
102
{ACAD_REACTORS
330
2A
102
}
102
{ACAD_XDICTIONARY
360
31D
102
}
330
2A
100
AcDbVisualStyle
  2
Realistic
 70
     8
 71
     2
 72
     2
 73
     0
 90
        0
 40
-0.6
 41
-30.0
 62
     5
 63
     7
 74
     1
 91
        0
 64
     7
 65
   257
 75
     1
175
     1
 42
1.0
 92
        8
 66
     8
 43
1.0
 76
     1
 77
     6
 78
     2
 67
     7
 79
     5
170
     0
171
     0
290
     0
174
     0
 93
       13
 44
0.0
173
     0
291
     0
 45
0.0
1001
ACAD
1000
AcDbSavedByObjectVersion
1070
     0
  0
VISUALSTYLE
  5
37
102
{ACAD_REACTORS
330
2A
102
}
102
{ACAD_XDICTIONARY
360
325
102
}
330
2A
100
AcDbVisualStyle
  2
Thicken
 70
    13
 71
     2
 72
     2
 73
     0
 90
        0
 40
-0.6
 41
-30.0
 62
     5
 63
     7
 74
     1
 91
        4
 64
     7
 65
   257
 75
     1
175
     1
 42
1.0
 92
       12
 66
     7
 43
1.0
 76
     1
 77
     6
 78
     2
 67
     7
 79
     5
170
     0
171
     0
290
     0
174
     0
 93
        1
 44
0.0
173
     0
291
     1
 45
0.0
1001
ACAD
1000
AcDbSavedByObjectVersion
1070
     0
  0
DICTIONARYVAR
  5
30B
102
{ACAD_REACTORS
330
308
102
}
330
308
100
DictionaryVariables
280
     0
  1
2
  0
DICTIONARYVAR
  5
30C
102
{ACAD_REACTORS
330
308
102
}
330
308
100
DictionaryVariables
280
     0
  1
1
  0
DICTIONARY
  5
32F
330
3D
100
AcDbDictionary
280
     1
281
     1
  3
ACAD_XREC_ROUNDTRIP
360
330
  0
DICTIONARY
  5
32D
330
3C
100
AcDbDictionary
280
     1
281
     1
  3
ACAD_XREC_ROUNDTRIP
360
32E
  0
DICTIONARY
  5
331
330
3E
100
AcDbDictionary
280
     1
281
     1
  3
ACAD_XREC_ROUNDTRIP
360
332
  0
DICTIONARY
  5
315
330
2F
100
AcDbDictionary
280
     1
281
     1
  3
ACAD_XREC_ROUNDTRIP
360
316
  0
DICTIONARY
  5
319
330
31
100
AcDbDictionary
280
     1
281
     1
  3
ACAD_XREC_ROUNDTRIP
360
31A
  0
DICTIONARY
  5
317
330
30
100
AcDbDictionary
280
     1
281
     1
  3
ACAD_XREC_ROUNDTRIP
360
318
  0
DICTIONARY
  5
31B
330
32
100
AcDbDictionary
280
     1
281
     1
  3
ACAD_XREC_ROUNDTRIP
360
31C
  0
DICTIONARY
  5
323
330
36
100
AcDbDictionary
280
     1
281
     1
  3
ACAD_XREC_ROUNDTRIP
360
324
  0
DICTIONARY
  5
32B
330
3A
100
AcDbDictionary
280
     1
281
     1
  3
ACAD_XREC_ROUNDTRIP
360
32C
  0
DICTIONARY
  5
31F
330
34
100
AcDbDictionary
280
     1
281
     1
  3
ACAD_XREC_ROUNDTRIP
360
320
  0
DICTIONARY
  5
321
330
35
100
AcDbDictionary
280
     1
281
     1
  3
ACAD_XREC_ROUNDTRIP
360
322
  0
DICTIONARY
  5
329
330
39
100
AcDbDictionary
280
     1
281
     1
  3
ACAD_XREC_ROUNDTRIP
360
32A
  0
DICTIONARY
  5
30D
330
2B
100
AcDbDictionary
280
     1
281
     1
  3
ACAD_XREC_ROUNDTRIP
360
30E
  0
DICTIONARY
  5
30F
330
2C
100
AcDbDictionary
280
     1
281
     1
  3
ACAD_XREC_ROUNDTRIP
360
310
  0
DICTIONARY
  5
311
330
2D
100
AcDbDictionary
280
     1
281
     1
  3
ACAD_XREC_ROUNDTRIP
360
312
  0
DICTIONARY
  5
313
330
2E
100
AcDbDictionary
280
     1
281
     1
  3
ACAD_XREC_ROUNDTRIP
360
314
  0
DICTIONARY
  5
327
330
38
100
AcDbDictionary
280
     1
281
     1
  3
ACAD_XREC_ROUNDTRIP
360
328
  0
DICTIONARY
  5
31D
330
33
100
AcDbDictionary
280
     1
281
     1
  3
ACAD_XREC_ROUNDTRIP
360
31E
  0
DICTIONARY
  5
325
330
37
100
AcDbDictionary
280
     1
281
     1
  3
ACAD_XREC_ROUNDTRIP
360
326
  0
XRECORD
  5
330
102
{ACAD_REACTORS
330
32F
102
}
330
32F
100
AcDbXrecord
280
     1
102
MATERIAL
148
0.0
149
0.0
149
0.0
 93
        0
 94
      127
282
     0
 72
     1
 77
     1
171
     1
175
     1
179
     1
273
     0
  0
XRECORD
  5
32E
102
{ACAD_REACTORS
330
32D
102
}
330
32D
100
AcDbXrecord
280
     1
102
MATERIAL
148
0.0
149
0.0
149
0.0
 93
        0
 94
      127
282
     0
 72
     1
 77
     1
171
     1
175
     1
179
     1
273
     0
  0
XRECORD
  5
332
102
{ACAD_REACTORS
330
331
102
}
330
331
100
AcDbXrecord
280
     1
102
MATERIAL
148
0.0
149
0.0
149
0.0
 93
        0
 94
      127
282
     0
 72
     1
 77
     1
171
     1
175
     1
179
     1
273
     0
  0
XRECORD
  5
316
102
{ACAD_REACTORS
330
315
102
}
330
315
100
AcDbXrecord
280
     1
102
RTVSPropertyOp0
 70
     1
102
RTVSPropertyOp1
 70
     1
102
RTVSPropertyOp2
 70
     1
102
RTVSPropertyOp3
 70
     1
102
RTVSPropertyOp4
 70
     1
102
RTVSPropertyOp5
 70
     1
102
RTVSPropertyOp6
 70
     1
102
RTVSPropertyOp7
 70
     1
102
RTVSPropertyOp8
 70
     1
102
RTVSPropertyOp9
 70
     1
102
RTVSPropertyOp10
 70
     1
102
RTVSPropertyOp11
 70
     1
102
RTVSPropertyOp12
 70
     1
102
RTVSPropertyOp13
 70
     1
102
RTVSPropertyOp14
 70
     1
102
RTVSPropertyOp15
 70
     1
102
RTVSPropertyOp16
 70
     1
102
RTVSPropertyOp17
 70
     1
102
RTVSPropertyOp18
 70
     1
102
RTVSPropertyOp19
 70
     1
102
RTVSPropertyOp20
 70
     1
102
RTVSPropertyOp21
 70
     1
102
RTVSPropertyOp22
 70
     1
102
RTVSPropertyOp23
 70
     1
102
RTVSPropertyOp24
 70
     1
102
RTVSPropertyOp25
 70
     1
102
RTVSPropertyOp26
 70
     1
102
RTVSPropertyOp27
 70
     1
102
RTVSPropertyOp28
 70
     1
102
RTVSPropertyOp29
 70
     1
102
RTVSPropertyOp30
 70
     1
102
RTVSPropertyOp31
 70
     1
102
RTVSPropertyOp32
 70
     1
  0
XRECORD
  5
31A
102
{ACAD_REACTORS
330
319
102
}
330
319
100
AcDbXrecord
280
     1
102
RTVSPropertyOp0
 70
     1
102
RTVSPropertyOp1
 70
     1
102
RTVSPropertyOp2
 70
     1
102
RTVSPropertyOp3
 70
     1
102
RTVSPropertyOp4
 70
     1
102
RTVSPropertyOp5
 70
     1
102
RTVSPropertyOp6
 70
     1
102
RTVSPropertyOp7
 70
     1
102
RTVSPropertyOp8
 70
     1
102
RTVSPropertyOp9
 70
     1
102
RTVSPropertyOp10
 70
     1
102
RTVSPropertyOp11
 70
     1
102
RTVSPropertyOp12
 70
     1
102
RTVSPropertyOp13
 70
     1
102
RTVSPropertyOp14
 70
     1
102
RTVSPropertyOp15
 70
     1
102
RTVSPropertyOp16
 70
     1
102
RTVSPropertyOp17
 70
     1
102
RTVSPropertyOp18
 70
     1
102
RTVSPropertyOp19
 70
     1
102
RTVSPropertyOp20
 70
     1
102
RTVSPropertyOp21
 70
     1
102
RTVSPropertyOp22
 70
     1
102
RTVSPropertyOp23
 70
     1
102
RTVSPropertyOp24
 70
     1
102
RTVSPropertyOp25
 70
     1
102
RTVSPropertyOp26
 70
     1
102
RTVSPropertyOp27
 70
     1
102
RTVSPropertyOp28
 70
     1
102
RTVSPropertyOp29
 70
     1
102
RTVSPropertyOp30
 70
     1
102
RTVSPropertyOp31
 70
     1
102
RTVSPropertyOp32
 70
     1
  0
XRECORD
  5
318
102
{ACAD_REACTORS
330
317
102
}
330
317
100
AcDbXrecord
280
     1
102
RTVSPropertyOp0
 70
     1
102
RTVSPropertyOp1
 70
     1
102
RTVSPropertyOp2
 70
     1
102
RTVSPropertyOp3
 70
     1
102
RTVSPropertyOp4
 70
     1
102
RTVSPropertyOp5
 70
     1
102
RTVSPropertyOp6
 70
     1
102
RTVSPropertyOp7
 70
     1
102
RTVSPropertyOp8
 70
     1
102
RTVSPropertyOp9
 70
     1
102
RTVSPropertyOp10
 70
     1
102
RTVSPropertyOp11
 70
     1
102
RTVSPropertyOp12
 70
     1
102
RTVSPropertyOp13
 70
     1
102
RTVSPropertyOp14
 70
     1
102
RTVSPropertyOp15
 70
     1
102
RTVSPropertyOp16
 70
     1
102
RTVSPropertyOp17
 70
     1
102
RTVSPropertyOp18
 70
     1
102
RTVSPropertyOp19
 70
     1
102
RTVSPropertyOp20
 70
     1
102
RTVSPropertyOp21
 70
     1
102
RTVSPropertyOp22
 70
     1
102
RTVSPropertyOp23
 70
     1
102
RTVSPropertyOp24
 70
     1
102
RTVSPropertyOp25
 70
     1
102
RTVSPropertyOp26
 70
     1
102
RTVSPropertyOp27
 70
     1
102
RTVSPropertyOp28
 70
     1
102
RTVSPropertyOp29
 70
     1
102
RTVSPropertyOp30
 70
     1
102
RTVSPropertyOp31
 70
     1
102
RTVSPropertyOp32
 70
     1
  0
XRECORD
  5
31C
102
{ACAD_REACTORS
330
31B
102
}
330
31B
100
AcDbXrecord
280
     1
102
RTVSPropertyOp0
 70
     1
102
RTVSPropertyOp1
 70
     1
102
RTVSPropertyOp2
 70
     1
102
RTVSPropertyOp3
 70
     1
102
RTVSPropertyOp4
 70
     1
102
RTVSPropertyOp5
 70
     1
102
RTVSPropertyOp6
 70
     1
102
RTVSPropertyOp7
 70
     1
102
RTVSPropertyOp8
 70
     1
102
RTVSPropertyOp9
 70
     1
102
RTVSPropertyOp10
 70
     1
102
RTVSPropertyOp11
 70
     1
102
RTVSPropertyOp12
 70
     1
102
RTVSPropertyOp13
 70
     1
102
RTVSPropertyOp14
 70
     1
102
RTVSPropertyOp15
 70
     1
102
RTVSPropertyOp16
 70
     1
102
RTVSPropertyOp17
 70
     1
102
RTVSPropertyOp18
 70
     1
102
RTVSPropertyOp19
 70
     1
102
RTVSPropertyOp20
 70
     1
102
RTVSPropertyOp21
 70
     1
102
RTVSPropertyOp22
 70
     1
102
RTVSPropertyOp23
 70
     1
102
RTVSPropertyOp24
 70
     1
102
RTVSPropertyOp25
 70
     1
102
RTVSPropertyOp26
 70
     1
102
RTVSPropertyOp27
 70
     1
102
RTVSPropertyOp28
 70
     1
102
RTVSPropertyOp29
 70
     1
102
RTVSPropertyOp30
 70
     1
102
RTVSPropertyOp31
 70
     1
102
RTVSPropertyOp32
 70
     1
  0
XRECORD
  5
324
102
{ACAD_REACTORS
330
323
102
}
330
323
100
AcDbXrecord
280
     1
102
RTVSPropertyOp0
 70
     1
102
RTVSPropertyOp1
 70
     1
102
RTVSPropertyOp2
 70
     1
102
RTVSPropertyOp3
 70
     1
102
RTVSPropertyOp4
 70
     1
102
RTVSPropertyOp5
 70
     1
102
RTVSPropertyOp6
 70
     1
102
RTVSPropertyOp7
 70
     1
102
RTVSPropertyOp8
 70
     1
102
RTVSPropertyOp9
 70
     1
102
RTVSPropertyOp10
 70
     1
102
RTVSPropertyOp11
 70
     1
102
RTVSPropertyOp12
 70
     1
102
RTVSPropertyOp13
 70
     1
102
RTVSPropertyOp14
 70
     1
102
RTVSPropertyOp15
 70
     1
102
RTVSPropertyOp16
 70
     1
102
RTVSPropertyOp17
 70
     1
102
RTVSPropertyOp18
 70
     1
102
RTVSPropertyOp19
 70
     1
102
RTVSPropertyOp20
 70
     1
102
RTVSPropertyOp21
 70
     1
102
RTVSPropertyOp22
 70
     1
102
RTVSPropertyOp23
 70
     1
102
RTVSPropertyOp24
 70
     1
102
RTVSPropertyOp25
 70
     1
102
RTVSPropertyOp26
 70
     1
102
RTVSPropertyOp27
 70
     1
102
RTVSPropertyOp28
 70
     1
102
RTVSPropertyOp29
 70
     1
102
RTVSPropertyOp30
 70
     1
102
RTVSPropertyOp31
 70
     1
102
RTVSPropertyOp32
 70
     1
  0
XRECORD
  5
32C
102
{ACAD_REACTORS
330
32B
102
}
330
32B
100
AcDbXrecord
280
     1
102
RTVSPropertyOp0
 70
     1
102
RTVSPropertyOp1
 70
     1
102
RTVSPropertyOp2
 70
     1
102
RTVSPropertyOp3
 70
     1
102
RTVSPropertyOp4
 70
     1
102
RTVSPropertyOp5
 70
     1
102
RTVSPropertyOp6
 70
     1
102
RTVSPropertyOp7
 70
     1
102
RTVSPropertyOp8
 70
     1
102
RTVSPropertyOp9
 70
     1
102
RTVSPropertyOp10
 70
     1
102
RTVSPropertyOp11
 70
     1
102
RTVSPropertyOp12
 70
     1
102
RTVSPropertyOp13
 70
     1
102
RTVSPropertyOp14
 70
     1
102
RTVSPropertyOp15
 70
     1
102
RTVSPropertyOp16
 70
     1
102
RTVSPropertyOp17
 70
     1
102
RTVSPropertyOp18
 70
     1
102
RTVSPropertyOp19
 70
     1
102
RTVSPropertyOp20
 70
     1
102
RTVSPropertyOp21
 70
     1
102
RTVSPropertyOp22
 70
     1
102
RTVSPropertyOp23
 70
     1
102
RTVSPropertyOp24
 70
     1
102
RTVSPropertyOp25
 70
     1
102
RTVSPropertyOp26
 70
     1
102
RTVSPropertyOp27
 70
     1
102
RTVSPropertyOp28
 70
     1
102
RTVSPropertyOp29
 70
     1
102
RTVSPropertyOp30
 70
     1
102
RTVSPropertyOp31
 70
     1
102
RTVSPropertyOp32
 70
     1
  0
XRECORD
  5
320
102
{ACAD_REACTORS
330
31F
102
}
330
31F
100
AcDbXrecord
280
     1
102
RTVSPropertyOp0
 70
     1
102
RTVSPropertyOp1
 70
     1
102
RTVSPropertyOp2
 70
     1
102
RTVSPropertyOp3
 70
     1
102
RTVSPropertyOp4
 70
     1
102
RTVSPropertyOp5
 70
     1
102
RTVSPropertyOp6
 70
     1
102
RTVSPropertyOp7
 70
     1
102
RTVSPropertyOp8
 70
     1
102
RTVSPropertyOp9
 70
     1
102
RTVSPropertyOp10
 70
     1
102
RTVSPropertyOp11
 70
     1
102
RTVSPropertyOp12
 70
     1
102
RTVSPropertyOp13
 70
     1
102
RTVSPropertyOp14
 70
     1
102
RTVSPropertyOp15
 70
     1
102
RTVSPropertyOp16
 70
     1
102
RTVSPropertyOp17
 70
     1
102
RTVSPropertyOp18
 70
     1
102
RTVSPropertyOp19
 70
     1
102
RTVSPropertyOp20
 70
     1
102
RTVSPropertyOp21
 70
     1
102
RTVSPropertyOp22
 70
     1
102
RTVSPropertyOp23
 70
     1
102
RTVSPropertyOp24
 70
     1
102
RTVSPropertyOp25
 70
     1
102
RTVSPropertyOp26
 70
     1
102
RTVSPropertyOp27
 70
     1
102
RTVSPropertyOp28
 70
     1
102
RTVSPropertyOp29
 70
     1
102
RTVSPropertyOp30
 70
     1
102
RTVSPropertyOp31
 70
     1
102
RTVSPropertyOp32
 70
     1
  0
XRECORD
  5
322
102
{ACAD_REACTORS
330
321
102
}
330
321
100
AcDbXrecord
280
     1
102
RTVSPropertyOp0
 70
     1
102
RTVSPropertyOp1
 70
     1
102
RTVSPropertyOp2
 70
     1
102
RTVSPropertyOp3
 70
     1
102
RTVSPropertyOp4
 70
     1
102
RTVSPropertyOp5
 70
     1
102
RTVSPropertyOp6
 70
     1
102
RTVSPropertyOp7
 70
     1
102
RTVSPropertyOp8
 70
     1
102
RTVSPropertyOp9
 70
     1
102
RTVSPropertyOp10
 70
     1
102
RTVSPropertyOp11
 70
     1
102
RTVSPropertyOp12
 70
     1
102
RTVSPropertyOp13
 70
     1
102
RTVSPropertyOp14
 70
     1
102
RTVSPropertyOp15
 70
     1
102
RTVSPropertyOp16
 70
     1
102
RTVSPropertyOp17
 70
     1
102
RTVSPropertyOp18
 70
     1
102
RTVSPropertyOp19
 70
     1
102
RTVSPropertyOp20
 70
     1
102
RTVSPropertyOp21
 70
     1
102
RTVSPropertyOp22
 70
     1
102
RTVSPropertyOp23
 70
     1
102
RTVSPropertyOp24
 70
     1
102
RTVSPropertyOp25
 70
     1
102
RTVSPropertyOp26
 70
     1
102
RTVSPropertyOp27
 70
     1
102
RTVSPropertyOp28
 70
     1
102
RTVSPropertyOp29
 70
     1
102
RTVSPropertyOp30
 70
     1
102
RTVSPropertyOp31
 70
     1
102
RTVSPropertyOp32
 70
     1
  0
XRECORD
  5
32A
102
{ACAD_REACTORS
330
329
102
}
330
329
100
AcDbXrecord
280
     1
102
RTVSPropertyOp0
 70
     1
102
RTVSPropertyOp1
 70
     1
102
RTVSPropertyOp2
 70
     1
102
RTVSPropertyOp3
 70
     1
102
RTVSPropertyOp4
 70
     1
102
RTVSPropertyOp5
 70
     1
102
RTVSPropertyOp6
 70
     1
102
RTVSPropertyOp7
 70
     1
102
RTVSPropertyOp8
 70
     1
102
RTVSPropertyOp9
 70
     1
102
RTVSPropertyOp10
 70
     1
102
RTVSPropertyOp11
 70
     1
102
RTVSPropertyOp12
 70
     1
102
RTVSPropertyOp13
 70
     1
102
RTVSPropertyOp14
 70
     1
102
RTVSPropertyOp15
 70
     1
102
RTVSPropertyOp16
 70
     1
102
RTVSPropertyOp17
 70
     1
102
RTVSPropertyOp18
 70
     1
102
RTVSPropertyOp19
 70
     1
102
RTVSPropertyOp20
 70
     1
102
RTVSPropertyOp21
 70
     1
102
RTVSPropertyOp22
 70
     1
102
RTVSPropertyOp23
 70
     1
102
RTVSPropertyOp24
 70
     1
102
RTVSPropertyOp25
 70
     1
102
RTVSPropertyOp26
 70
     1
102
RTVSPropertyOp27
 70
     1
102
RTVSPropertyOp28
 70
     1
102
RTVSPropertyOp29
 70
     1
102
RTVSPropertyOp30
 70
     1
102
RTVSPropertyOp31
 70
     1
102
RTVSPropertyOp32
 70
     1
  0
XRECORD
  5
30E
102
{ACAD_REACTORS
330
30D
102
}
330
30D
100
AcDbXrecord
280
     1
102
RTVSPropertyOp0
 70
     1
102
RTVSPropertyOp1
 70
     1
102
RTVSPropertyOp2
 70
     1
102
RTVSPropertyOp3
 70
     1
102
RTVSPropertyOp4
 70
     1
102
RTVSPropertyOp5
 70
     1
102
RTVSPropertyOp6
 70
     1
102
RTVSPropertyOp7
 70
     1
102
RTVSPropertyOp8
 70
     1
102
RTVSPropertyOp9
 70
     1
102
RTVSPropertyOp10
 70
     1
102
RTVSPropertyOp11
 70
     1
102
RTVSPropertyOp12
 70
     1
102
RTVSPropertyOp13
 70
     1
102
RTVSPropertyOp14
 70
     1
102
RTVSPropertyOp15
 70
     1
102
RTVSPropertyOp16
 70
     1
102
RTVSPropertyOp17
 70
     1
102
RTVSPropertyOp18
 70
     1
102
RTVSPropertyOp19
 70
     1
102
RTVSPropertyOp20
 70
     1
102
RTVSPropertyOp21
 70
     1
102
RTVSPropertyOp22
 70
     1
102
RTVSPropertyOp23
 70
     1
102
RTVSPropertyOp24
 70
     1
102
RTVSPropertyOp25
 70
     1
102
RTVSPropertyOp26
 70
     1
102
RTVSPropertyOp27
 70
     1
102
RTVSPropertyOp28
 70
     1
102
RTVSPropertyOp29
 70
     1
102
RTVSPropertyOp30
 70
     1
102
RTVSPropertyOp31
 70
     1
102
RTVSPropertyOp32
 70
     1
  0
XRECORD
  5
310
102
{ACAD_REACTORS
330
30F
102
}
330
30F
100
AcDbXrecord
280
     1
102
RTVSPropertyOp0
 70
     1
102
RTVSPropertyOp1
 70
     1
102
RTVSPropertyOp2
 70
     1
102
RTVSPropertyOp3
 70
     1
102
RTVSPropertyOp4
 70
     1
102
RTVSPropertyOp5
 70
     1
102
RTVSPropertyOp6
 70
     1
102
RTVSPropertyOp7
 70
     1
102
RTVSPropertyOp8
 70
     1
102
RTVSPropertyOp9
 70
     1
102
RTVSPropertyOp10
 70
     1
102
RTVSPropertyOp11
 70
     1
102
RTVSPropertyOp12
 70
     1
102
RTVSPropertyOp13
 70
     1
102
RTVSPropertyOp14
 70
     1
102
RTVSPropertyOp15
 70
     1
102
RTVSPropertyOp16
 70
     1
102
RTVSPropertyOp17
 70
     1
102
RTVSPropertyOp18
 70
     1
102
RTVSPropertyOp19
 70
     1
102
RTVSPropertyOp20
 70
     1
102
RTVSPropertyOp21
 70
     1
102
RTVSPropertyOp22
 70
     1
102
RTVSPropertyOp23
 70
     1
102
RTVSPropertyOp24
 70
     1
102
RTVSPropertyOp25
 70
     1
102
RTVSPropertyOp26
 70
     1
102
RTVSPropertyOp27
 70
     1
102
RTVSPropertyOp28
 70
     1
102
RTVSPropertyOp29
 70
     1
102
RTVSPropertyOp30
 70
     1
102
RTVSPropertyOp31
 70
     1
102
RTVSPropertyOp32
 70
     1
  0
XRECORD
  5
312
102
{ACAD_REACTORS
330
311
102
}
330
311
100
AcDbXrecord
280
     1
102
RTVSPropertyOp0
 70
     1
102
RTVSPropertyOp1
 70
     1
102
RTVSPropertyOp2
 70
     1
102
RTVSPropertyOp3
 70
     1
102
RTVSPropertyOp4
 70
     1
102
RTVSPropertyOp5
 70
     1
102
RTVSPropertyOp6
 70
     1
102
RTVSPropertyOp7
 70
     1
102
RTVSPropertyOp8
 70
     1
102
RTVSPropertyOp9
 70
     1
102
RTVSPropertyOp10
 70
     1
102
RTVSPropertyOp11
 70
     1
102
RTVSPropertyOp12
 70
     1
102
RTVSPropertyOp13
 70
     1
102
RTVSPropertyOp14
 70
     1
102
RTVSPropertyOp15
 70
     1
102
RTVSPropertyOp16
 70
     1
102
RTVSPropertyOp17
 70
     1
102
RTVSPropertyOp18
 70
     1
102
RTVSPropertyOp19
 70
     1
102
RTVSPropertyOp20
 70
     1
102
RTVSPropertyOp21
 70
     1
102
RTVSPropertyOp22
 70
     1
102
RTVSPropertyOp23
 70
     1
102
RTVSPropertyOp24
 70
     1
102
RTVSPropertyOp25
 70
     1
102
RTVSPropertyOp26
 70
     1
102
RTVSPropertyOp27
 70
     1
102
RTVSPropertyOp28
 70
     1
102
RTVSPropertyOp29
 70
     1
102
RTVSPropertyOp30
 70
     1
102
RTVSPropertyOp31
 70
     1
102
RTVSPropertyOp32
 70
     1
  0
XRECORD
  5
314
102
{ACAD_REACTORS
330
313
102
}
330
313
100
AcDbXrecord
280
     1
102
RTVSPropertyOp0
 70
     1
102
RTVSPropertyOp1
 70
     1
102
RTVSPropertyOp2
 70
     1
102
RTVSPropertyOp3
 70
     1
102
RTVSPropertyOp4
 70
     1
102
RTVSPropertyOp5
 70
     1
102
RTVSPropertyOp6
 70
     1
102
RTVSPropertyOp7
 70
     1
102
RTVSPropertyOp8
 70
     1
102
RTVSPropertyOp9
 70
     1
102
RTVSPropertyOp10
 70
     1
102
RTVSPropertyOp11
 70
     1
102
RTVSPropertyOp12
 70
     1
102
RTVSPropertyOp13
 70
     1
102
RTVSPropertyOp14
 70
     1
102
RTVSPropertyOp15
 70
     1
102
RTVSPropertyOp16
 70
     1
102
RTVSPropertyOp17
 70
     1
102
RTVSPropertyOp18
 70
     1
102
RTVSPropertyOp19
 70
     1
102
RTVSPropertyOp20
 70
     1
102
RTVSPropertyOp21
 70
     1
102
RTVSPropertyOp22
 70
     1
102
RTVSPropertyOp23
 70
     1
102
RTVSPropertyOp24
 70
     1
102
RTVSPropertyOp25
 70
     1
102
RTVSPropertyOp26
 70
     1
102
RTVSPropertyOp27
 70
     1
102
RTVSPropertyOp28
 70
     1
102
RTVSPropertyOp29
 70
     1
102
RTVSPropertyOp30
 70
     1
102
RTVSPropertyOp31
 70
     1
102
RTVSPropertyOp32
 70
     1
  0
XRECORD
  5
328
102
{ACAD_REACTORS
330
327
102
}
330
327
100
AcDbXrecord
280
     1
102
RTVSPropertyOp0
 70
     1
102
RTVSPropertyOp1
 70
     1
102
RTVSPropertyOp2
 70
     1
102
RTVSPropertyOp3
 70
     1
102
RTVSPropertyOp4
 70
     1
102
RTVSPropertyOp5
 70
     1
102
RTVSPropertyOp6
 70
     1
102
RTVSPropertyOp7
 70
     1
102
RTVSPropertyOp8
 70
     1
102
RTVSPropertyOp9
 70
     1
102
RTVSPropertyOp10
 70
     1
102
RTVSPropertyOp11
 70
     1
102
RTVSPropertyOp12
 70
     1
102
RTVSPropertyOp13
 70
     1
102
RTVSPropertyOp14
 70
     1
102
RTVSPropertyOp15
 70
     1
102
RTVSPropertyOp16
 70
     1
102
RTVSPropertyOp17
 70
     1
102
RTVSPropertyOp18
 70
     1
102
RTVSPropertyOp19
 70
     1
102
RTVSPropertyOp20
 70
     1
102
RTVSPropertyOp21
 70
     1
102
RTVSPropertyOp22
 70
     1
102
RTVSPropertyOp23
 70
     1
102
RTVSPropertyOp24
 70
     1
102
RTVSPropertyOp25
 70
     1
102
RTVSPropertyOp26
 70
     1
102
RTVSPropertyOp27
 70
     1
102
RTVSPropertyOp28
 70
     1
102
RTVSPropertyOp29
 70
     1
102
RTVSPropertyOp30
 70
     1
102
RTVSPropertyOp31
 70
     1
102
RTVSPropertyOp32
 70
     1
  0
XRECORD
  5
31E
102
{ACAD_REACTORS
330
31D
102
}
330
31D
100
AcDbXrecord
280
     1
102
RTVSPropertyOp0
 70
     1
102
RTVSPropertyOp1
 70
     1
102
RTVSPropertyOp2
 70
     1
102
RTVSPropertyOp3
 70
     1
102
RTVSPropertyOp4
 70
     1
102
RTVSPropertyOp5
 70
     1
102
RTVSPropertyOp6
 70
     1
102
RTVSPropertyOp7
 70
     1
102
RTVSPropertyOp8
 70
     1
102
RTVSPropertyOp9
 70
     1
102
RTVSPropertyOp10
 70
     1
102
RTVSPropertyOp11
 70
     1
102
RTVSPropertyOp12
 70
     1
102
RTVSPropertyOp13
 70
     1
102
RTVSPropertyOp14
 70
     1
102
RTVSPropertyOp15
 70
     1
102
RTVSPropertyOp16
 70
     1
102
RTVSPropertyOp17
 70
     1
102
RTVSPropertyOp18
 70
     1
102
RTVSPropertyOp19
 70
     1
102
RTVSPropertyOp20
 70
     1
102
RTVSPropertyOp21
 70
     1
102
RTVSPropertyOp22
 70
     1
102
RTVSPropertyOp23
 70
     1
102
RTVSPropertyOp24
 70
     1
102
RTVSPropertyOp25
 70
     1
102
RTVSPropertyOp26
 70
     1
102
RTVSPropertyOp27
 70
     1
102
RTVSPropertyOp28
 70
     1
102
RTVSPropertyOp29
 70
     1
102
RTVSPropertyOp30
 70
     1
102
RTVSPropertyOp31
 70
     1
102
RTVSPropertyOp32
 70
     1
  0
XRECORD
  5
326
102
{ACAD_REACTORS
330
325
102
}
330
325
100
AcDbXrecord
280
     1
102
RTVSPropertyOp0
 70
     1
102
RTVSPropertyOp1
 70
     1
102
RTVSPropertyOp2
 70
     1
102
RTVSPropertyOp3
 70
     1
102
RTVSPropertyOp4
 70
     1
102
RTVSPropertyOp5
 70
     1
102
RTVSPropertyOp6
 70
     1
102
RTVSPropertyOp7
 70
     1
102
RTVSPropertyOp8
 70
     1
102
RTVSPropertyOp9
 70
     1
102
RTVSPropertyOp10
 70
     1
102
RTVSPropertyOp11
 70
     1
102
RTVSPropertyOp12
 70
     1
102
RTVSPropertyOp13
 70
     1
102
RTVSPropertyOp14
 70
     1
102
RTVSPropertyOp15
 70
     1
102
RTVSPropertyOp16
 70
     1
102
RTVSPropertyOp17
 70
     1
102
RTVSPropertyOp18
 70
     1
102
RTVSPropertyOp19
 70
     1
102
RTVSPropertyOp20
 70
     1
102
RTVSPropertyOp21
 70
     1
102
RTVSPropertyOp22
 70
     1
102
RTVSPropertyOp23
 70
     1
102
RTVSPropertyOp24
 70
     1
102
RTVSPropertyOp25
 70
     1
102
RTVSPropertyOp26
 70
     1
102
RTVSPropertyOp27
 70
     1
102
RTVSPropertyOp28
 70
     1
102
RTVSPropertyOp29
 70
     1
102
RTVSPropertyOp30
 70
     1
102
RTVSPropertyOp31
 70
     1
102
RTVSPropertyOp32
 70
     1
  0
ENDSEC
  0
EOF
