  0
SECTION
  2
HEADER
  9
$ACADVER
  1
AC1032
  9
$ACADMAINTVER
 90
        4
  9
$DWGCODEPAGE
  3
ANSI_932
  9
$LASTSAVEDBY
  1
9128
  9
$REQUIREDVERSIONS
160
                 0
  9
$INSBASE
 10
0.0
 20
0.0
 30
0.0
  9
$EXTMIN
 10
175.0695438821
 20
105.6816189894623
 30
0.0
  9
$EXTMAX
 10
291.5790327301812
 20
201.7886136730369
 30
0.0
  9
$LIMMIN
 10
0.0
 20
0.0
  9
$LIMMAX
 10
0.0
 20
0.0
  9
$ORTHOMODE
 70
     0
  9
$REGENMODE
 70
     1
  9
$FILLMODE
 70
     1
  9
$QTEXTMODE
 70
     0
  9
$MIRRTEXT
 70
     1
  9
$LTSCALE
 40
12.7
  9
$ATTMODE
 70
     1
  9
$TEXTSIZE
 40
0.0
  9
$TRACEWID
 40
1.0
  9
$TEXTSTYLE
  7
Standard
  9
$CLAYER
  8
0
  9
$CELTYPE
  6
Continuous
  9
$CECOLOR
 62
   256
  9
$CELTSCALE
 40
1.0
  9
$DISPSILH
 70
     0
  9
$DIMSCALE
 40
1.0
  9
$DIMASZ
 40
0.18
  9
$DIMEXO
 40
0.0625
  9
$DIMDLI
 40
0.38
  9
$DIMRND
 40
0.0
  9
$DIMDLE
 40
0.0
  9
$DIMEXE
 40
0.18
  9
$DIMTP
 40
0.0
  9
$DIMTM
 40
0.0
  9
$DIMTXT
 40
0.18
  9
$DIMCEN
 40
0.09
  9
$DIMTSZ
 40
0.0
  9
$DIMTOL
 70
     0
  9
$DIMLIM
 70
     0
  9
$DIMTIH
 70
     1
  9
$DIMTOH
 70
     1
  9
$DIMSE1
 70
     0
  9
$DIMSE2
 70
     0
  9
$DIMTAD
 70
     0
  9
$DIMZIN
 70
     0
  9
$DIMBLK
  1

  9
$DIMASO
 70
     1
  9
$DIMSHO
 70
     1
  9
$DIMPOST
  1

  9
$DIMAPOST
  1

  9
$DIMALT
 70
     0
  9
$DIMALTD
 70
     2
  9
$DIMALTF
 40
25.4
  9
$DIMLFAC
 40
1.0
  9
$DIMTOFL
 70
     0
  9
$DIMTVP
 40
0.0
  9
$DIMTIX
 70
     0
  9
$DIMSOXD
 70
     0
  9
$DIMSAH
 70
     0
  9
$DIMBLK1
  1

  9
$DIMBLK2
  1

  9
$DIMSTYLE
  2
Standard
  9
$DIMCLRD
 70
     0
  9
$DIMCLRE
 70
     0
  9
$DIMCLRT
 70
     0
  9
$DIMTFAC
 40
1.0
  9
$DIMGAP
 40
0.09
  9
$DIMJUST
 70
     0
  9
$DIMSD1
 70
     0
  9
$DIMSD2
 70
     0
  9
$DIMTOLJ
 70
     1
  9
$DIMTZIN
 70
     0
  9
$DIMALTZ
 70
     0
  9
$DIMALTTZ
 70
     0
  9
$DIMUPT
 70
     0
  9
$DIMDEC
 70
     4
  9
$DIMTDEC
 70
     4
  9
$DIMALTU
 70
     2
  9
$DIMALTTD
 70
     2
  9
$DIMTXSTY
  7
Standard
  9
$DIMAUNIT
 70
     0
  9
$DIMADEC
 70
     0
  9
$DIMALTRND
 40
0.0
  9
$DIMAZIN
 70
     0
  9
$DIMDSEP
 70
     0
  9
$DIMATFIT
 70
     3
  9
$DIMFRAC
 70
     0
  9
$DIMLDRBLK
  1

  9
$DIMLUNIT
 70
     2
  9
$DIMLWD
 70
     0
  9
$DIMLWE
 70
     0
  9
$DIMTMOVE
 70
     0
  9
$DIMFXL
 40
1.0
  9
$DIMFXLON
 70
     0
  9
$DIMJOGANG
 40
0.7853981633974483
  9
$DIMTFILL
 70
     0
  9
$DIMTFILLCLR
 70
     0
  9
$DIMARCSYM
 70
     0
  9
$DIMLTYPE
  6

  9
$DIMLTEX1
  6

  9
$DIMLTEX2
  6

  9
$DIMTXTDIRECTION
 70
     0
  9
$LUNITS
 70
     2
  9
$LUPREC
 70
     4
  9
$SKETCHINC
 40
0.1
  9
$FILLETRAD
 40
0.0
  9
$AUNITS
 70
     0
  9
$AUPREC
 70
     0
  9
$MENU
  1
acad
  9
$ELEVATION
 40
0.0
  9
$PELEVATION
 40
0.0
  9
$THICKNESS
 40
0.0
  9
$LIMCHECK
 70
     0
  9
$CHAMFERA
 40
0.0
  9
$CHAMFERB
 40
0.0
  9
$CHAMFERC
 40
0.0
  9
$CHAMFERD
 40
0.0
  9
$SKPOLY
 70
     0
  9
$TDCREATE
 40
2447893.375
  9
$TDUCREATE
 40
0.0
  9
$TDUPDATE
 40
2458914.389435035
  9
$TDUUPDATE
 40
2458914.014435035
  9
$TDINDWG
 40
0.0006624074
  9
$TDUSRTIMER
 40
0.0001069676
  9
$USRTIMER
 70
     1
  9
$ANGBASE
 50
0.0
  9
$ANGDIR
 70
     0
  9
$PDMODE
 70
     1
  9
$PDSIZE
 40
-2.0
  9
$PLINEWID
 40
0.0
  9
$SPLFRAME
 70
     0
  9
$SPLINETYPE
 70
     6
  9
$SPLINESEGS
 70
     8
  9
$HANDSEED
  5
DF
  9
$SURFTAB1
 70
     6
  9
$SURFTAB2
 70
     6
  9
$SURFTYPE
 70
     6
  9
$SURFU
 70
     6
  9
$SURFV
 70
     6
  9
$UCSBASE
  2

  9
$UCSNAME
  2

  9
$UCSORG
 10
0.0
 20
0.0
 30
0.0
  9
$UCSXDIR
 10
1.0
 20
0.0
 30
0.0
  9
$UCSYDIR
 10
0.0
 20
1.0
 30
0.0
  9
$UCSORTHOREF
  2

  9
$UCSORTHOVIEW
 70
     0
  9
$UCSORGTOP
 10
0.0
 20
0.0
 30
0.0
  9
$UCSORGBOTTOM
 10
0.0
 20
0.0
 30
0.0
  9
$UCSORGLEFT
 10
0.0
 20
0.0
 30
0.0
  9
$UCSORGRIGHT
 10
0.0
 20
0.0
 30
0.0
  9
$UCSORGFRONT
 10
0.0
 20
0.0
 30
0.0
  9
$UCSORGBACK
 10
0.0
 20
0.0
 30
0.0
  9
$PUCSBASE
  2

  9
$PUCSNAME
  2

  9
$PUCSORG
 10
0.0
 20
0.0
 30
0.0
  9
$PUCSXDIR
 10
1.0
 20
0.0
 30
0.0
  9
$PUCSYDIR
 10
0.0
 20
1.0
 30
0.0
  9
$PUCSORTHOREF
  2

  9
$PUCSORTHOVIEW
 70
     0
  9
$PUCSORGTOP
 10
0.0
 20
0.0
 30
0.0
  9
$PUCSORGBOTTOM
 10
0.0
 20
0.0
 30
0.0
  9
$PUCSORGLEFT
 10
0.0
 20
0.0
 30
0.0
  9
$PUCSORGRIGHT
 10
0.0
 20
0.0
 30
0.0
  9
$PUCSORGFRONT
 10
0.0
 20
0.0
 30
0.0
  9
$PUCSORGBACK
 10
0.0
 20
0.0
 30
0.0
  9
$USERI1
 70
     0
  9
$USERI2
 70
     0
  9
$USERI3
 70
     0
  9
$USERI4
 70
     0
  9
$USERI5
 70
     0
  9
$USERR1
 40
0.0
  9
$USERR2
 40
0.0
  9
$USERR3
 40
0.0
  9
$USERR4
 40
0.0
  9
$USERR5
 40
0.0
  9
$WORLDVIEW
 70
     1
  9
$SHADEDGE
 70
     3
  9
$SHADEDIF
 70
    70
  9
$TILEMODE
 70
     1
  9
$MAXACTVP
 70
    16
  9
$PINSBASE
 10
0.0
 20
0.0
 30
0.0
  9
$PLIMCHECK
 70
     0
  9
$PEXTMIN
 10
1.000000000000000E+20
 20
1.000000000000000E+20
 30
1.000000000000000E+20
  9
$PEXTMAX
 10
-1.000000000000000E+20
 20
-1.000000000000000E+20
 30
-1.000000000000000E+20
  9
$PLIMMIN
 10
0.0
 20
0.0
  9
$PLIMMAX
 10
0.0
 20
0.0
  9
$UNITMODE
 70
     0
  9
$VISRETAIN
 70
     0
  9
$PLINEGEN
 70
     1
  9
$PSLTSCALE
 70
     0
  9
$TREEDEPTH
 70
  3020
  9
$CMLSTYLE
  2
Standard
  9
$CMLJUST
 70
     0
  9
$CMLSCALE
 40
1.0
  9
$PROXYGRAPHICS
 70
     0
  9
$MEASUREMENT
 70
     1
  9
$CELWEIGHT
370
     0
  9
$ENDCAPS
280
     0
  9
$JOINSTYLE
280
     0
  9
$LWDISPLAY
290
     1
  9
$INSUNITS
 70
     4
  9
$HYPERLINKBASE
  1

  9
$STYLESHEET
  1

  9
$XEDIT
290
     1
  9
$CEPSNTYPE
380
     0
  9
$PSTYLEMODE
290
     1
  9
$FINGERPRINTGUID
  2

  9
$VERSIONGUID
  2

  9
$EXTNAMES
290
     1
  9
$PSVPSCALE
 40
0.0
  9
$OLESTARTUP
290
     0
  9
$SORTENTS
280
   127
  9
$INDEXCTL
280
     0
  9
$HIDETEXT
280
     1
  9
$XCLIPFRAME
280
     2
  9
$HALOGAP
280
     0
  9
$OBSCOLOR
 70
   257
  9
$OBSLTYPE
280
     0
  9
$INTERSECTIONDISPLAY
280
     0
  9
$INTERSECTIONCOLOR
 70
   257
  9
$DIMASSOC
280
     2
  9
$PROJECTNAME
  1

  9
$CAMERADISPLAY
290
     0
  9
$LENSLENGTH
 40
50.0
  9
$CAMERAHEIGHT
 40
0.0
  9
$STEPSPERSEC
 40
2.0
  9
$STEPSIZE
 40
6.0
  9
$3DDWFPREC
 40
2.0
  9
$PSOLWIDTH
 40
0.25
  9
$PSOLHEIGHT
 40
4.0
  9
$LOFTANG1
 40
1.570796326794897
  9
$LOFTANG2
 40
1.570796326794897
  9
$LOFTMAG1
 40
0.0
  9
$LOFTMAG2
 40
0.0
  9
$LOFTPARAM
 70
     7
  9
$LOFTNORMALS
280
     1
  9
$LATITUDE
 40
37.795
  9
$LONGITUDE
 40
-122.394
  9
$NORTHDIRECTION
 40
0.0
  9
$TIMEZONE
 70
 -8000
  9
$LIGHTGLYPHDISPLAY
280
     1
  9
$TILEMODELIGHTSYNCH
280
     1
  9
$SOLIDHIST
280
     0
  9
$SHOWHIST
280
     1
  9
$DWFFRAME
280
     2
  9
$DGNFRAME
280
     2
  9
$REALWORLDSCALE
290
     1
  9
$INTERFERECOLOR
 62
   256
  9
$CSHADOW
280
     0
  9
$SHADOWPLANELOCATION
 40
0.0
  0
ENDSEC
  0
SECTION
  2
CLASSES
  0
CLASS
  1
LWPOLYLINE
  2
AcDbPolyline
  3
ObjectDBX Classes
 90
        0
 91
        1
280
     0
281
     1
  0
CLASS
  1
IMAGE
  2
AcDbRasterImage
  3
ISM
 90
      127
 91
        4
280
     0
281
     1
  0
CLASS
  1
OLE2FRAME
  2
AcDbOle2Frame
  3
ObjectDBX Classes
 90
        0
 91
        1
280
     0
281
     1
  0
CLASS
  1
HATCH
  2
AcDbHatch
  3
ObjectDBX Classes
 90
        0
 91
        1
280
     0
281
     1
  0
CLASS
  1
DICTIONARYVAR
  2
AcDbDictionaryVar
  3
ObjectDBX Classes
 90
        0
 91
        3
280
     0
281
     0
  0
CLASS
  1
RASTERVARIABLES
  2
AcDbRasterVariables
  3
ISM
 90
        0
 91
        3
280
     0
281
     0
  0
CLASS
  1
IMAGEDEF
  2
AcDbRasterImageDef
  3
ISM
 90
        0
 91
        3
280
     0
281
     0
  0
CLASS
  1
IMAGEDEF_REACTOR
  2
AcDbRasterImageDefReactor
  3
ISM
 90
        1
 91
        3
280
     0
281
     0
  0
CLASS
  1
IDBUFFER
  2
AcDbIdBuffer
  3
ObjectDBX Classes
 90
        0
 91
        3
280
     0
281
     0
  0
CLASS
  1
SPATIAL_FILTER
  2
AcDbSpatialFilter
  3
ObjectDBX Classes
 90
        0
 91
        3
280
     0
281
     0
  0
CLASS
  1
XRECORD
  2
AcDbXrecord
  3
ObjectDBX Classes
 90
        0
 91
        1
280
     0
281
     0
  0
CLASS
  1
SORTENTSTABLE
  2
AcDbSortentsTable
  3
ObjectDBX Classes
 90
        0
 91
        3
280
     0
281
     0
  0
CLASS
  1
LAYER_INDEX
  2
AcDbLayerIndex
  3
ObjectDBX Classes
 90
        0
 91
        3
280
     0
281
     0
  0
CLASS
  1
SPATIAL_INDEX
  2
AcDbSpatialIndex
  3
AutoCAD 2000
 90
        0
 91
        3
280
     0
281
     0
  0
CLASS
  1
OBJECT_PTR
  2
CAseDLPNTableRecord
  3
ASE-LPNTableRecord
 90
        1
 91
        3
280
     0
281
     0
  0
CLASS
  1
LAYOUT
  2
AcDbLayout
  3
ObjectDBX Classes
 90
        0
 91
        1
280
     0
281
     0
  0
CLASS
  1
PLOTSETTINGS
  2
AcDbPlotSettings
  3
ObjectDBX Classes
 90
        0
 91
        3
280
     0
281
     0
  0
CLASS
  1
ACDBDICTIONARYWDFLT
  2
AcDbDictionaryWithDefault
  3
ObjectDBX Classes
 90
        0
 91
        3
280
     0
281
     0
  0
CLASS
  1
ACDBPLACEHOLDER
  2
AcDbPlaceHolder
  3
ObjectDBX Classes
 90
        0
 91
        1
280
     0
281
     0
  0
CLASS
  1
VBA_PROJECT
  2
AcDbVbaProject
  3
ObjectDBX Classes
 90
        0
 91
        1
280
     0
281
     0
  0
CLASS
  1
WIPEOUT
  2
AcDbWipeout
  3
WipeOut|AutoCAD Express Tool|expresstools@autodesk.com
 90
      127
 91
        3
280
     0
281
     1
  0
CLASS
  1
WIPEOUTVARIABLES
  2
AcDbWipeoutVariables
  3
WipeOut|AutoCAD Express Tool|expresstools@autodesk.com
 90
        0
 91
        3
280
     0
281
     0
  0
CLASS
  1
RTEXT
  2
RText
  3
RText|AutoCAD Express Tool|expresstools@autodesk.com
 90
        0
 91
        3
280
     0
281
     1
  0
CLASS
  1
ARCALIGNEDTEXT
  2
AcDbArcAlignedText
  3
ATEXT|AutoCAD Express Tool|expresstools@autodesk.com
 90
        0
 91
        3
280
     0
281
     1
  0
CLASS
  1
SCALE
  2
AcDbScale
  3
ObjectDBX Classes
 90
     1153
 91
        3
280
     0
281
     0
  0
CLASS
  1
VISUALSTYLE
  2
AcDbVisualStyle
  3
ObjectDBX Classes
 90
     4095
 91
        3
280
     0
281
     0
  0
CLASS
  1
MATERIAL
  2
AcDbMaterial
  3
ObjectDBX Classes
 90
     1153
 91
        3
280
     0
281
     0
  0
CLASS
  1
TABLESTYLE
  2
AcDbTableStyle
  3
ObjectDBX Classes
 90
     4095
 91
        3
280
     0
281
     0
  0
CLASS
  1
MLEADERSTYLE
  2
AcDbMLeaderStyle
  3
ACDB_MLEADERSTYLE_CLASS
 90
     4095
 91
        3
280
     0
281
     0
  0
CLASS
  1
SUN
  2
AcDbSun
  3
SCENEOE
 90
     1153
 91
        3
280
     0
281
     0
  0
CLASS
  1
CELLSTYLEMAP
  2
AcDbCellStyleMap
  3
ObjectDBX Classes
 90
     1152
 91
        3
280
     0
281
     0
  0
ENDSEC
  0
SECTION
  2
TABLES
  0
TABLE
  2
VPORT
  5
7
330
0
100
AcDbSymbolTable
 70
     1
  0
VPORT
  5
15
330
7
100
AcDbSymbolTableRecord
100
AcDbViewportTableRecord
  2
*ACTIVE
 70
     0
 10
0.0
 20
0.0
 11
1.0
 21
1.0
 12
204.90763232366
 22
177.8369683469911
 13
0.0
 23
0.0
 14
1.0
 24
1.0
 15
0.0
 25
0.0
 16
0.0
 26
0.0
 36
1.0
 17
0.0
 27
0.0
 37
0.0
 40
300.1474598234382
 41
0.9934318555008211
 42
50.0
 43
0.0
 44
0.0
 50
0.0
 51
0.0
 71
    16
 72
   100
 73
     1
 74
     1
 75
     0
 76
     0
 77
     0
 78
     0
281
     0
 65
     0
110
0.0
120
0.0
130
0.0
111
1.0
121
0.0
131
0.0
112
0.0
122
1.0
132
0.0
 79
     0
146
0.0
348
B7
 60
     3
 61
     5
292
     1
282
     1
141
0.0
142
0.0
 63
   256
361
DB
  0
ENDTAB
  0
TABLE
  2
LTYPE
  5
4
330
0
100
AcDbSymbolTable
 70
    11
  0
LTYPE
  5
11
330
4
100
AcDbSymbolTableRecord
100
AcDbLinetypeTableRecord
  2
ByBlock
 70
     0
  3

 72
    65
 73
     0
 40
0.0
  0
LTYPE
  5
12
330
4
100
AcDbSymbolTableRecord
100
AcDbLinetypeTableRecord
  2
ByLayer
 70
     0
  3

 72
    65
 73
     0
 40
0.0
  0
LTYPE
  5
13
330
4
100
AcDbSymbolTableRecord
100
AcDbLinetypeTableRecord
  2
Continuous
 70
     0
  3
Solid line
 72
    65
 73
     0
 40
0.0
  0
LTYPE
  5
25
330
4
100
AcDbSymbolTableRecord
100
AcDbLinetypeTableRecord
  2
STYLE_01
 70
     0
  3

 72
    65
 73
     2
 40
0.15
 49
0.1
 74
     0
 49
-0.05
 74
     0
  0
LTYPE
  5
26
330
4
100
AcDbSymbolTableRecord
100
AcDbLinetypeTableRecord
  2
STYLE_02
 70
     0
  3

 72
    65
 73
     6
 40
0.9999999999999998
 49
0.4999999999999999
 74
     0
 49
-0.1
 74
     0
 49
0.1
 74
     0
 49
-0.1
 74
     0
 49
0.1
 74
     0
 49
-0.1
 74
     0
  0
LTYPE
  5
27
330
4
100
AcDbSymbolTableRecord
100
AcDbLinetypeTableRecord
  2
STYLE_03
 70
     0
  3

 72
    65
 73
     4
 40
0.7999999999999998
 49
0.4999999999999999
 74
     0
 49
-0.1
 74
     0
 49
0.1
 74
     0
 49
-0.1
 74
     0
  0
LTYPE
  5
28
330
4
100
AcDbSymbolTableRecord
100
AcDbLinetypeTableRecord
  2
STYLE_04
 70
     0
  3

 72
    65
 73
     4
 40
1.6
 49
0.9999999999999999
 74
     0
 49
-0.2000000000000001
 74
     0
 49
0.2
 74
     0
 49
-0.2
 74
     0
  0
LTYPE
  5
29
330
4
100
AcDbSymbolTableRecord
100
AcDbLinetypeTableRecord
  2
STYLE_05
 70
     0
  3

 72
    65
 73
     2
 40
0.05
 49
0.0002
 74
     0
 49
-0.0498
 74
     0
  0
LTYPE
  5
2A
330
4
100
AcDbSymbolTableRecord
100
AcDbLinetypeTableRecord
  2
STYLE_06
 70
     0
  3

 72
    65
 73
     4
 40
0.416656
 49
0.25
 74
     0
 49
-0.083312
 74
     0
 49
0.027772
 74
     0
 49
-0.055572
 74
     0
  0
LTYPE
  5
2B
330
4
100
AcDbSymbolTableRecord
100
AcDbLinetypeTableRecord
  2
STYLE_07
 70
     0
  3

 72
    65
 73
     6
 40
0.75
 49
0.25
 74
     0
 49
-0.083312
 74
     0
 49
0.2500000000000001
 74
     0
 49
-0.083344
 74
     0
 49
0.027772
 74
     0
 49
-0.055572
 74
     0
  0
LTYPE
  5
2C
330
4
100
AcDbSymbolTableRecord
100
AcDbLinetypeTableRecord
  2
STYLE_08
 70
     0
  3

 72
    65
 73
     6
 40
0.5
 49
0.25
 74
     0
 49
-0.083312
 74
     0
 49
0.027772
 74
     0
 49
-0.055572
 74
     0
 49
0.027772
 74
     0
 49
-0.055572
 74
     0
  0
LTYPE
  5
2D
330
4
100
AcDbSymbolTableRecord
100
AcDbLinetypeTableRecord
  2
STYLE_09
 70
     0
  3

 72
    65
 73
     4
 40
2.0
 49
1.5
 74
     0
 49
-0.1111139999999999
 74
     0
 49
0.2777720000000001
 74
     0
 49
-0.1111139999999999
 74
     0
  0
LTYPE
  5
2E
330
4
100
AcDbSymbolTableRecord
100
AcDbLinetypeTableRecord
  2
STYLE_10
 70
     0
  3

 72
    65
 73
     6
 40
2.375
 49
1.5
 74
     0
 49
-0.1111139999999999
 74
     0
 49
0.2777720000000001
 74
     0
 49
-0.1111139999999999
 74
     0
 49
0.25
 74
     0
 49
-0.125
 74
     0
  0
ENDTAB
  0
TABLE
  2
LAYER
  5
2
330
0
100
AcDbSymbolTable
 70
     6
  0
LAYER
  5
14
330
2
100
AcDbSymbolTableRecord
100
AcDbLayerTableRecord
  2
0
 70
     0
 62
     7
  6
Continuous
370
    15
390
1D
347
CE
348
0
  0
LAYER
  5
2F
330
2
100
AcDbSymbolTableRecord
100
AcDbLayerTableRecord
  2
Defpoints
 70
     0
 62
     7
  6
Continuous
290
     0
370
    -3
390
1D
347
CE
348
0
  0
LAYER
  5
30
330
2
100
AcDbSymbolTableRecord
100
AcDbLayerTableRecord
  2
一般
 70
     0
 62
     7
  6
Continuous
370
     5
390
1D
347
CE
348
0
  0
LAYER
  5
31
330
2
100
AcDbSymbolTableRecord
100
AcDbLayerTableRecord
  2
寸法
 70
     0
 62
     7
  6
Continuous
370
     5
390
1D
347
CE
348
0
  0
LAYER
  5
33
330
2
100
AcDbSymbolTableRecord
100
AcDbLayerTableRecord
  2
レイヤー_1
 70
     0
 62
    19
  6
Continuous
370
    15
390
1D
347
CE
348
0
  0
LAYER
  5
34
330
2
100
AcDbSymbolTableRecord
100
AcDbLayerTableRecord
  2
FORMAT
 70
     0
 62
     7
  6
Continuous
370
    15
390
1D
347
CE
348
0
  0
ENDTAB
  0
TABLE
  2
STYLE
  5
3
330
0
100
AcDbSymbolTable
 70
     2
  0
STYLE
  5
17
330
3
100
AcDbSymbolTableRecord
100
AcDbTextStyleTableRecord
  2
Standard
 70
     0
 40
0.0
 41
1.0
 50
0.0
 71
     0
 42
0.0
  3
txt
  4
BIGFONT.SHX
  0
STYLE
  5
24
330
3
100
AcDbSymbolTableRecord
100
AcDbTextStyleTableRecord
  2
ＭＳ Ｐゴシック
 70
     0
 40
0.0
 41
1.0
 50
0.0
 71
     0
 42
0.0
  3
ＭＳ Ｐゴシック
  4

1001
ACAD
1000
ＭＳ Ｐゴシック
1071
        0
  0
ENDTAB
  0
TABLE
  2
VIEW
  5
5
330
0
100
AcDbSymbolTable
 70
     0
  0
ENDTAB
  0
TABLE
  2
UCS
  5
6
330
0
100
AcDbSymbolTable
 70
     0
  0
ENDTAB
  0
TABLE
  2
APPID
  5
8
330
0
100
AcDbSymbolTable
 70
     1
  0
APPID
  5
16
330
8
100
AcDbSymbolTableRecord
100
AcDbRegAppTableRecord
  2
ACAD
 70
     0
  0
ENDTAB
  0
TABLE
  2
DIMSTYLE
  5
9
330
0
100
AcDbSymbolTable
 70
     1
100
AcDbDimStyleTable
  0
DIMSTYLE
105
18
330
9
100
AcDbSymbolTableRecord
100
AcDbDimStyleTableRecord
  2
Standard
 70
     0
178
     0
340
17
  0
ENDTAB
  0
TABLE
  2
BLOCK_RECORD
  5
1
330
0
100
AcDbSymbolTable
 70
     0
  0
BLOCK_RECORD
  5
A
330
1
100
AcDbSymbolTableRecord
100
AcDbBlockTableRecord
  2
*MODEL_SPACE
340
20
 70
     0
280
     1
281
     0
  0
BLOCK_RECORD
  5
B
330
1
100
AcDbSymbolTableRecord
100
AcDbBlockTableRecord
  2
*PAPER_SPACE
340
21
 70
     0
280
     1
281
     0
  0
ENDTAB
  0
ENDSEC
  0
SECTION
  2
BLOCKS
  0
BLOCK
  5
D
330
A
100
AcDbEntity
  8
0
100
AcDbBlockBegin
  2
*MODEL_SPACE
 70
     0
 10
0.0
 20
0.0
 30
0.0
  3
*MODEL_SPACE
  1

  0
ENDBLK
  5
E
330
A
100
AcDbEntity
  8
0
100
AcDbBlockEnd
  0
BLOCK
  5
F
330
B
100
AcDbEntity
 67
     1
  8
0
100
AcDbBlockBegin
  2
*PAPER_SPACE
 70
     0
 10
0.0
 20
0.0
 30
0.0
  3
*PAPER_SPACE
  1

  0
ENDBLK
  5
10
330
B
100
AcDbEntity
 67
     1
  8
0
100
AcDbBlockEnd
  0
ENDSEC
  0
SECTION
  2
ENTITIES
  0
LINE
  5
35
330
A
100
AcDbEntity
  8
0
  6
Continuous
 62
     7
370
    25
100
AcDbLine
 10
227.3695153899
 20
195.2905082103
 30
0.0
 11
227.3778334551
 21
195.5715380974
 31
0.0
  0
SPLINE
  5
36
330
A
100
AcDbEntity
  8
0
  6
Continuous
 62
     7
370
    25
100
AcDbSpline
210
0.0
220
0.0
230
1.0
 70
     8
 71
     2
 72
    29
 73
    26
 74
     0
 42
0.000000001
 43
0.000001
 40
0.0
 40
0.0
 40
0.0
 40
1.0
 40
1.0
 40
2.0
 40
2.0
 40
3.0
 40
3.0
 40
4.0
 40
4.0
 40
5.0
 40
6.0
 40
7.0
 40
8.0
 40
9.0
 40
10.0
 40
11.0
 40
12.0
 40
13.0
 40
14.0
 40
15.0
 40
16.0
 40
17.0
 40
18.0
 40
18.0
 40
19.0
 40
19.0
 40
19.0
 10
227.3714757804373
 20
195.6119071120719
 30
0.0
 10
227.3714734848684
 20
195.6119491597502
 30
0.0
 10
227.3714711892994
 20
195.6119912074286
 30
0.0
 10
227.3713380463019
 20
195.6144299727716
 30
0.0
 10
227.3712049033039
 20
195.6168687381147
 30
0.0
 10
227.371202607735
 20
195.616910785793
 30
0.0
 10
227.3712003121661
 20
195.6169528334714
 30
0.0
 10
227.3711370399191
 20
195.6188934225223
 30
0.0
 10
227.3710737676722
 20
195.6208340115733
 30
0.0
 10
227.3668977484967
 20
195.74131900764
 30
0.0
 10
227.3312636636084
 20
195.9669947170903
 30
0.0
 10
227.2475975831242
 20
196.1514916487099
 30
0.0
 10
227.0622118555061
 20
196.4747730762256
 30
0.0
 10
226.7614728272211
 20
196.7147945433565
 30
0.0
 10
226.4569611029441
 20
196.9417002116414
 30
0.0
 10
226.0662826801157
 20
197.0893589392193
 30
0.0
 10
225.6533980109496
 20
197.2249936386082
 30
0.0
 10
225.1578575327303
 20
197.2995959854372
 30
0.0
 10
224.9203924220645
 20
197.3152743804176
 30
0.0
 10
224.8682566633866
 20
197.3178314626077
 30
0.0
 10
224.8254273470112
 20
197.3194751165684
 30
0.0
 10
224.8316036651006
 20
197.3192398695922
 30
0.0
 10
224.8301043838013
 20
197.3193049501012
 30
0.0
 10
224.8284817528361
 20
197.3193739490404
 30
0.0
 10
224.8284547514106
 20
197.3193751199574
 30
0.0
 10
224.8284277499852
 20
197.3193762908744
 30
0.0
  0
LINE
  5
37
330
A
100
AcDbEntity
  8
0
  6
Continuous
 62
     7
370
    25
100
AcDbLine
 10
219.9666315831
 20
199.7792855779
 30
0.0
 11
219.9750771521
 21
200.0646232417
 31
0.0
  0
SPLINE
  5
38
330
A
100
AcDbEntity
  8
0
  6
Continuous
 62
     7
370
    25
100
AcDbSpline
210
0.0
220
0.0
230
1.0
 70
     8
 71
     2
 72
    24
 73
    21
 74
     0
 42
0.000000001
 43
0.000001
 40
0.0
 40
0.0
 40
0.0
 40
1.0
 40
1.0
 40
2.0
 40
3.0
 40
4.0
 40
5.0
 40
6.0
 40
7.0
 40
8.0
 40
9.0
 40
10.0
 40
11.0
 40
12.0
 40
13.0
 40
14.0
 40
15.0
 40
16.0
 40
16.0
 40
17.0
 40
17.0
 40
17.0
 10
219.9687196378293
 20
200.1049921588985
 30
0.0
 10
219.9687165815981
 20
200.1050481395303
 30
0.0
 10
219.9687135253669
 20
200.1051041201621
 30
0.0
 10
219.9682137179136
 20
200.1149871822486
 30
0.0
 10
219.9685168976359
 20
200.1084641815686
 30
0.0
 10
219.967706442217
 20
200.1249585779761
 30
0.0
 10
219.9682862694634
 20
200.2269697796192
 30
0.0
 10
219.9132818016986
 20
200.528023611624
 30
0.0
 10
219.6615966632176
 20
200.9651690162531
 30
0.0
 10
219.1453754007921
 20
201.3798449515524
 30
0.0
 10
218.586099421719
 20
201.6202238367306
 30
0.0
 10
217.8578137339478
 20
201.8076281126364
 30
0.0
 10
216.9717847531641
 20
201.8191813375223
 30
0.0
 10
216.110267221695
 20
201.6668340563157
 30
0.0
 10
215.5529341651603
 20
201.3948716096303
 30
0.0
 10
215.3760530223211
 20
201.2591392930616
 30
0.0
 10
215.3338605659752
 20
201.2223849778161
 30
0.0
 10
215.3433626255107
 20
201.2306718456898
 30
0.0
 10
215.3363104003587
 20
201.2245222612306
 30
0.0
 10
215.3362934263869
 20
201.2245074672823
 30
0.0
 10
215.336276452415
 20
201.2244926733339
 30
0.0
  0
LINE
  5
39
330
A
100
AcDbEntity
  8
0
  6
Continuous
 62
     7
370
    25
100
AcDbLine
 10
213.5918062157
 20
199.0099485492
 30
0.0
 11
213.5063772578
 21
198.9217836311
 31
0.0
  0
SPLINE
  5
3A
330
A
100
AcDbEntity
  8
0
  6
Continuous
 62
     7
370
    25
100
AcDbSpline
210
0.0
220
0.0
230
1.0
 70
     8
 71
     2
 72
    26
 73
    23
 74
     0
 42
0.000000001
 43
0.000001
 40
0.0
 40
0.0
 40
0.0
 40
1.0
 40
1.0
 40
2.0
 40
3.0
 40
4.0
 40
5.0
 40
6.0
 40
7.0
 40
8.0
 40
9.0
 40
10.0
 40
11.0
 40
12.0
 40
13.0
 40
14.0
 40
15.0
 40
16.0
 40
17.0
 40
18.0
 40
18.0
 40
19.0
 40
19.0
 40
19.0
 10
230.4015631320083
 20
191.1036357676603
 30
0.0
 10
230.4014365374757
 20
191.1039305355444
 30
0.0
 10
230.4013099429431
 20
191.1042253034284
 30
0.0
 10
230.4010601321648
 20
191.1046623396
 30
0.0
 10
230.3925259863464
 20
191.1247708493596
 30
0.0
 10
230.4048139943974
 20
191.0955264841042
 30
0.0
 10
230.326278702642
 20
191.2820775439231
 30
0.0
 10
230.0536446821523
 20
191.9058415273764
 30
0.0
 10
229.2151751294554
 20
193.2672384118318
 30
0.0
 10
227.3695129803226
 20
195.4918875954173
 30
0.0
 10
224.9728761769669
 20
197.2020072284666
 30
0.0
 10
222.7521017976495
 20
198.7030967973393
 30
0.0
 10
220.2438529512443
 20
199.6865676852395
 30
0.0
 10
217.7746250060011
 20
200.6011401597711
 30
0.0
 10
215.1649033071868
 20
201.2918332444496
 30
0.0
 10
213.9809249567136
 20
201.5323760241418
 30
0.0
 10
213.6633232796611
 20
201.5941151549239
 30
0.0
 10
213.2800475572763
 20
201.6631750911122
 30
0.0
 10
213.3453729498294
 20
201.6513993926392
 30
0.0
 10
213.3250318883564
 20
201.6550493634433
 30
0.0
 10
213.3332496189235
 20
201.6535542843834
 30
0.0
 10
213.3332032789602
 20
201.6535620851512
 30
0.0
 10
213.333156938997
 20
201.653569885919
 30
0.0
  0
LINE
  5
3B
330
A
100
AcDbEntity
  8
0
  6
Continuous
 62
     7
370
    25
100
AcDbLine
 10
229.3645977728
 20
190.9929584684
 30
0.0
 11
229.0825166553
 21
191.0056499598
 31
0.0
  0
LINE
  5
3C
330
A
100
AcDbEntity
  8
0
  6
Continuous
 62
     7
370
    25
100
AcDbLine
 10
233.6281104007
 20
165.0084602197
 30
0.0
 11
253.0285818182
 21
153.2333907256
 31
0.0
  0
LINE
  5
3D
330
A
100
AcDbEntity
  8
0
  6
Continuous
 62
     7
370
    25
100
AcDbLine
 10
256.5568037896
 20
159.0464498618
 30
0.0
 11
236.8727142757
 21
170.9936606778
 31
0.0
  0
LINE
  5
3E
330
A
100
AcDbEntity
  8
0
  6
Continuous
 62
     7
370
    25
100
AcDbLine
 10
230.6551492859
 20
184.7703798301
 30
0.0
 11
230.7169484086
 21
186.8582933104
 31
0.0
  0
LINE
  5
3F
330
A
100
AcDbEntity
  8
0
  6
Continuous
 62
     7
370
    25
100
AcDbLine
 10
182.2381807524
 20
188.2931920246
 30
0.0
 11
182.1763816297
 21
186.2052785443
 31
0.0
  0
LINE
  5
40
330
A
100
AcDbEntity
  8
0
  6
Continuous
 62
     7
370
    25
100
AcDbLine
 10
189.9326962973
 20
197.8478493994
 30
0.0
 11
188.8025686656
 21
197.1987991022
 31
0.0
  0
LINE
  5
41
330
A
100
AcDbEntity
  8
0
  6
Continuous
 62
     7
370
    25
100
AcDbLine
 10
175.1105664066
 20
175.6352342658
 30
0.0
 11
175.0737372889
 21
174.3909445735
 31
0.0
  0
LINE
  5
42
330
A
100
AcDbEntity
  8
0
  6
Continuous
 62
     7
370
    25
100
AcDbLine
 10
237.0465985023
 20
172.5566399089
 30
0.0
 11
237.08342762
 21
173.8009296012
 31
0.0
  0
LINE
  5
43
330
A
100
AcDbEntity
  8
0
  6
Continuous
 62
     7
370
    25
100
AcDbLine
 10
213.6933324848
 20
191.5504836222
 30
0.0
 11
213.6983922551
 21
191.3356265559
 31
0.0
  0
ARC
  5
44
330
A
100
AcDbEntity
  8
0
  6
Continuous
 62
     7
370
    25
100
AcDbCircle
 10
206.154041079
 20
150.51971026
 30
0.0
 40
41.71768542967062
100
AcDbArc
 50
73.49148066720001
 51
79.58819987470004
  0
LINE
  5
45
330
A
100
AcDbEntity
  8
0
  6
Continuous
 62
     7
370
    25
100
AcDbLine
 10
218.0107710563
 20
190.4758349911
 30
0.0
 11
218.0084513332
 21
190.517688148
 31
0.0
  0
LINE
  5
46
330
A
100
AcDbEntity
  8
0
  6
Continuous
 62
     7
370
    25
100
AcDbLine
 10
218.8676009814
 20
198.4618814093
 30
0.0
 11
219.3351854248
 21
190.0505889039
 31
0.0
  0
SPLINE
  5
47
330
A
100
AcDbEntity
  8
0
  6
Continuous
 62
     7
370
    25
100
AcDbSpline
210
0.0
220
0.0
230
1.0
 70
     8
 71
     2
 72
    28
 73
    25
 74
     0
 42
0.000000001
 43
0.000001
 40
0.0
 40
0.0
 40
0.0
 40
1.0
 40
1.0
 40
2.0
 40
2.0
 40
3.0
 40
3.0
 40
4.0
 40
4.0
 40
5.0
 40
6.0
 40
7.0
 40
8.0
 40
9.0
 40
10.0
 40
11.0
 40
12.0
 40
13.0
 40
14.0
 40
15.0
 40
16.0
 40
17.0
 40
17.0
 40
18.0
 40
18.0
 40
18.0
 10
217.9457911068997
 20
199.5012261271398
 30
0.0
 10
217.9458170497569
 20
199.5012158419951
 30
0.0
 10
217.9458429926141
 20
199.5012055568505
 30
0.0
 10
217.9477627640481
 20
199.5004444561451
 30
0.0
 10
217.9496825354822
 20
199.4996833554406
 30
0.0
 10
217.9497084783394
 20
199.499673070296
 30
0.0
 10
217.9497344211966
 20
199.4996627851513
 30
0.0
 10
217.9513519012271
 20
199.4990579865344
 30
0.0
 10
217.9529693812576
 20
199.4984531879175
 30
0.0
 10
218.0778762730118
 20
199.4513432585884
 30
0.0
 10
218.2611404708191
 20
199.3572173300996
 30
0.0
 10
218.4385411577934
 20
199.2303470537493
 30
0.0
 10
218.624987479368
 20
199.0367898378326
 30
0.0
 10
218.6890973584018
 20
198.9416643339283
 30
0.0
 10
218.7425449636236
 20
198.8575236062839
 30
0.0
 10
218.8182104833497
 20
198.712117191793
 30
0.0
 10
218.8550878076335
 20
198.5552614340779
 30
0.0
 10
218.8650087685772
 20
198.4826242727471
 30
0.0
 10
218.8663939980652
 20
198.4717563492014
 30
0.0
 10
218.8674619783612
 20
198.4628597248089
 30
0.0
 10
218.8673269291304
 20
198.4640002114658
 30
0.0
 10
218.8674607113539
 20
198.4629702420335
 30
0.0
 10
218.867597124244
 20
198.461911195463
 30
0.0
 10
218.867599052834
 20
198.4618963023864
 30
0.0
 10
218.8676009814239
 20
198.4618814093097
 30
0.0
  0
ARC
  5
48
330
A
100
AcDbEntity
  8
0
  6
Continuous
 62
     7
370
    25
100
AcDbCircle
 10
206.5180565648
 20
162.6456529738
 30
0.0
 40
38.5866089365843
100
AcDbArc
 50
72.77300838159996
 51
79.6051894023
  0
LINE
  5
49
330
A
100
AcDbEntity
  8
0
  6
Continuous
 62
     7
370
    25
100
AcDbLine
 10
213.4656873132
 20
201.2169502117
 30
0.0
 11
213.4802407428
 21
200.598971415
 31
0.0
  0
LWPOLYLINE
  5
4A
330
A
100
AcDbEntity
  8
0
  6
Continuous
 62
     7
370
    25
100
AcDbPolyline
 90
       16
 70
   128
 43
0.0
 10
230.4712039779
 20
190.895492748
 10
230.0086733964
 20
191.8307513612
 10
229.4315852843
 20
192.7480774503
 10
228.7427501683
 20
193.6430012805
 10
227.9455239813
 20
194.5111638849
 10
227.0437910574
 20
195.3483349242
 10
226.0419438872
 20
196.1504355296
 10
224.9448630638
 20
196.9135580139
 10
223.7578950775
 20
197.6339853801
 10
222.486822885
 20
198.3082076765
 10
221.137837346
 20
198.9329393333
 10
219.7175104901
 20
199.5051368958
 10
218.2327625212
 20
200.0220130202
 10
216.6908282747
 20
200.4810492925
 10
215.0992180892
 20
200.8800094222
 10
213.4656873132
 20
201.2169502117
  0
LINE
  5
4B
330
A
100
AcDbEntity
  8
0
  6
Continuous
 62
     7
370
    25
100
AcDbLine
 10
230.4712039779
 20
190.895492748
 30
0.0
 11
230.5705860873
 21
190.2260273881
 31
0.0
  0
ARC
  5
4C
330
A
100
AcDbEntity
  8
0
  6
Continuous
 62
     7
370
    25
100
AcDbCircle
 10
220.5320631757
 20
185.8287045497
 30
0.0
 40
10.95939735531404
100
AcDbArc
 50
23.65557277169996
 51
39.48751711860004
  0
SPLINE
  5
4D
330
A
100
AcDbEntity
  8
0
  6
Continuous
 62
     7
370
    25
100
AcDbSpline
210
0.0
220
0.0
230
1.0
 70
     8
 71
     2
 72
    28
 73
    25
 74
     0
 42
0.000000001
 43
0.000001
 40
0.0
 40
0.0
 40
0.0
 40
1.0
 40
1.0
 40
2.0
 40
3.0
 40
4.0
 40
5.0
 40
6.0
 40
7.0
 40
8.0
 40
9.0
 40
10.0
 40
11.0
 40
12.0
 40
13.0
 40
14.0
 40
15.0
 40
16.0
 40
17.0
 40
18.0
 40
19.0
 40
20.0
 40
20.0
 40
21.0
 40
21.0
 40
21.0
 10
228.6639764595337
 20
192.5159948603186
 30
0.0
 10
228.6639754214256
 20
192.5160063941962
 30
0.0
 10
228.6639743833174
 20
192.5160179280737
 30
0.0
 10
228.6638833661107
 20
192.5170310686783
 30
0.0
 10
228.6637905044633
 20
192.5180681473834
 30
0.0
 10
228.6637521653643
 20
192.518473773037
 30
0.0
 10
228.6638577077116
 20
192.5173906176574
 30
0.0
 10
228.6631858526648
 20
192.5243337757895
 30
0.0
 10
228.6567445566678
 20
192.5919365025711
 30
0.0
 10
228.6538004427094
 20
192.6453503813001
 30
0.0
 10
228.6509042409538
 20
192.7019584748238
 30
0.0
 10
228.65564916515
 20
192.8283675666428
 30
0.0
 10
228.7058413282537
 20
192.9266962536061
 30
0.0
 10
228.7638654186103
 20
192.9525312360618
 30
0.0
 10
228.8238256623406
 20
192.9442780813401
 30
0.0
 10
228.8980597631601
 20
192.8968761320105
 30
0.0
 10
228.9586799852299
 20
192.8329959941324
 30
0.0
 10
228.9838734205069
 20
192.8049105531259
 30
0.0
 10
228.9870164357218
 20
192.8013851314467
 30
0.0
 10
228.9895994369041
 20
192.7984764601216
 30
0.0
 10
228.9892739637301
 20
192.7988434806471
 30
0.0
 10
228.9896764257855
 20
192.7983941548572
 30
0.0
 10
228.9901135394937
 20
192.7979055685376
 30
0.0
 10
228.9901178469107
 20
192.7979007567933
 30
0.0
 10
228.9901221543277
 20
192.797895945049
 30
0.0
  0
LINE
  5
4E
330
A
100
AcDbEntity
  8
0
  6
Continuous
 62
     7
370
    25
100
AcDbLine
 10
229.6569337954
 20
185.4714192952
 30
0.0
 11
228.6639764595
 21
192.5159948603
 31
0.0
  0
LINE
  5
4F
330
A
100
AcDbEntity
  8
0
  6
Continuous
 62
     7
370
    25
100
AcDbLine
 10
213.5934393411
 20
191.6076566088
 30
0.0
 11
213.0631606656282
 21
196.5507333414738
 31
0.0
  0
LINE
  5
50
330
A
100
AcDbEntity
  8
0
  6
Continuous
 62
     7
370
    25
100
AcDbLine
 10
213.2729139596
 20
198.4107348311
 30
0.0
 11
213.0682691506442
 21
196.5461687933498
 31
0.0
  0
LINE
  5
51
330
A
100
AcDbEntity
  8
0
  6
Continuous
 62
     7
370
    25
100
AcDbLine
 10
213.2729139596
 20
198.4107348311
 30
0.0
 11
213.3520970122
 21
198.4924526605
 31
0.0
  0
LINE
  5
52
330
A
100
AcDbEntity
  8
0
  6
Continuous
 62
     7
370
    25
100
AcDbLine
 10
213.3520970122
 20
198.4924526605
 30
0.0
 11
213.1549447613412
 21
196.6958304890404
 31
0.0
  0
LINE
  5
53
330
A
100
AcDbEntity
  8
0
  6
Continuous
 62
     7
370
    25
100
AcDbLine
 10
213.1549447613413
 20
196.6958304890404
 30
0.0
 11
213.6749945164
 21
191.8481107023
 31
0.0
  0
LINE
  5
54
330
A
100
AcDbEntity
  8
0
  6
Continuous
 62
     7
370
    25
100
AcDbLine
 10
213.6749945164
 20
191.8481107023
 30
0.0
 11
213.6933324848
 21
191.5504836222
 31
0.0
  0
LINE
  5
55
330
A
100
AcDbEntity
  8
0
  6
Continuous
 62
     7
370
    25
100
AcDbLine
 10
213.5934393411
 20
191.6076566088
 30
0.0
 11
213.6081106699
 21
191.3695556899
 31
0.0
  0
LINE
  5
56
330
A
100
AcDbEntity
  8
0
  6
Continuous
 62
     7
370
    25
100
AcDbLine
 10
213.6085699138
 20
191.3500653309
 30
0.0
 11
213.6081106699
 21
191.3695556899
 31
0.0
  0
ARC
  5
57
330
A
100
AcDbEntity
  8
0
  6
Continuous
 62
     7
370
    25
100
AcDbCircle
 10
206.164494197
 20
150.9740668313
 30
0.0
 40
41.55833342927432
100
AcDbArc
 50
73.49149860520002
 51
79.58818967060003
  0
LINE
  5
58
330
A
100
AcDbEntity
  8
0
  6
Continuous
 62
     7
370
    25
100
AcDbLine
 10
218.0084513332
 20
190.517688148
 30
0.0
 11
217.9736108454
 21
190.8192653049
 31
0.0
  0
LINE
  5
59
330
A
100
AcDbEntity
  8
0
  6
Continuous
 62
     7
370
    25
100
AcDbLine
 10
217.9736108454
 20
190.8192653049
 30
0.0
 11
217.0501839695768
 21
195.7635284091152
 31
0.0
  0
LINE
  5
5A
330
A
100
AcDbEntity
  8
0
  6
Continuous
 62
     7
370
    25
100
AcDbLine
 10
218.8676009814
 20
198.4618814093
 30
0.0
 11
218.7343118369
 21
198.2791666977
 31
0.0
  0
LINE
  5
5B
330
A
100
AcDbEntity
  8
0
  6
Continuous
 62
     7
370
    25
100
AcDbLine
 10
218.7343118369
 20
198.2791666977
 30
0.0
 11
219.1872313202
 21
190.1322154174
 31
0.0
  0
SPLINE
  5
5C
330
A
100
AcDbEntity
  8
0
  6
Continuous
 62
     7
370
    25
100
AcDbSpline
210
0.0
220
0.0
230
1.0
 70
     8
 71
     2
 72
    23
 73
    20
 74
     0
 42
0.000000001
 43
0.000001
 40
0.0
 40
0.0
 40
0.0
 40
1.0
 40
1.0
 40
2.0
 40
3.0
 40
4.0
 40
5.0
 40
6.0
 40
7.0
 40
8.0
 40
9.0
 40
10.0
 40
11.0
 40
12.0
 40
13.0
 40
14.0
 40
15.0
 40
15.0
 40
16.0
 40
16.0
 40
16.0
 10
225.4525820634572
 20
187.9847663124801
 30
0.0
 10
225.4525796143617
 20
187.9847691831168
 30
0.0
 10
225.4525771652662
 20
187.9847720537534
 30
0.0
 10
225.4525619708673
 20
187.984797436217
 30
0.0
 10
225.4519184615096
 20
187.9855431888149
 30
0.0
 10
225.4521490179424
 20
187.9852794053887
 30
0.0
 10
225.4506714488148
 20
187.9869736633317
 30
0.0
 10
225.4312806116056
 20
188.0093095819366
 30
0.0
 10
225.3993626026663
 20
188.0512660735355
 30
0.0
 10
225.3759885996184
 20
188.0935072531296
 30
0.0
 10
225.359442008204
 20
188.1417094352695
 30
0.0
 10
225.3466753999748
 20
188.1988914913559
 30
0.0
 10
225.3403319860059
 20
188.234100509791
 30
0.0
 10
225.3395664641761
 20
188.238436244424
 30
0.0
 10
225.3390937637261
 20
188.2411360818411
 30
0.0
 10
225.3391672580012
 20
188.2407151251584
 30
0.0
 10
225.339013000653
 20
188.241579989454
 30
0.0
 10
225.3389493566073
 20
188.2419273743712
 30
0.0
 10
225.338948544846
 20
188.2419318835002
 30
0.0
 10
225.3389477330847
 20
188.2419363926292
 30
0.0
  0
SPLINE
  5
5D
330
A
100
AcDbEntity
  8
0
  6
Continuous
 62
     7
370
    25
100
AcDbSpline
210
0.0
220
0.0
230
1.0
 70
     8
 71
     2
 72
    25
 73
    22
 74
     0
 42
0.000000001
 43
0.000001
 40
0.0
 40
0.0
 40
0.0
 40
1.0
 40
1.0
 40
2.0
 40
3.0
 40
4.0
 40
5.0
 40
6.0
 40
7.0
 40
8.0
 40
9.0
 40
10.0
 40
11.0
 40
12.0
 40
13.0
 40
14.0
 40
15.0
 40
16.0
 40
17.0
 40
17.0
 40
18.0
 40
18.0
 40
18.0
 10
214.4206958572948
 20
199.2534650445759
 30
0.0
 10
214.4206692452112
 20
199.2534679574727
 30
0.0
 10
214.4206426331276
 20
199.2534708703696
 30
0.0
 10
214.4189086927282
 20
199.2536605577189
 30
0.0
 10
214.4159407414035
 20
199.2539898742991
 30
0.0
 10
214.4175300141637
 20
199.2538064283572
 30
0.0
 10
214.3508440028184
 20
199.2613841760244
 30
0.0
 10
214.228512867095
 20
199.271634122637
 30
0.0
 10
214.0873376809572
 20
199.2677278671108
 30
0.0
 10
213.8849450570347
 20
199.2198822292443
 30
0.0
 10
213.6575263055277
 20
199.0831203118862
 30
0.0
 10
213.5208151129606
 20
198.9322816947622
 30
0.0
 10
213.4224345640536
 20
198.7788193101353
 30
0.0
 10
213.3729328859958
 20
198.6036987730074
 30
0.0
 10
213.3565415154558
 20
198.5175417275849
 30
0.0
 10
213.3542019147188
 20
198.5045007607307
 30
0.0
 10
213.3523512010707
 20
198.4937632621316
 30
0.0
 10
213.3526381903275
 20
198.4954378668492
 30
0.0
 10
213.3522403963176
 20
198.493206675958
 30
0.0
 10
213.3521035297442
 20
198.4924884369038
 30
0.0
 10
213.3521002709835
 20
198.4924705486877
 30
0.0
 10
213.3520970122228
 20
198.4924526604716
 30
0.0
  0
ARC
  5
5E
330
A
100
AcDbEntity
  8
0
  6
Continuous
 62
     7
370
    25
100
AcDbCircle
 10
206.4228019213
 20
161.0886271428
 30
0.0
 40
38.99386053576281
100
AcDbArc
 50
74.9154190761
 51
78.16426695359999
  0
SPLINE
  5
5F
330
A
100
AcDbEntity
  8
0
  6
Continuous
 62
     7
370
    25
100
AcDbSpline
210
0.0
220
0.0
230
1.0
 70
     8
 71
     2
 72
    25
 73
    22
 74
     0
 42
0.000000001
 43
0.000001
 40
0.0
 40
0.0
 40
0.0
 40
1.0
 40
1.0
 40
2.0
 40
3.0
 40
4.0
 40
5.0
 40
6.0
 40
7.0
 40
8.0
 40
9.0
 40
10.0
 40
11.0
 40
12.0
 40
13.0
 40
14.0
 40
15.0
 40
16.0
 40
17.0
 40
17.0
 40
18.0
 40
18.0
 40
18.0
 10
217.3348602759792
 20
197.5392051983784
 30
0.0
 10
217.3348620822361
 20
197.5392332549796
 30
0.0
 10
217.3348638884931
 20
197.5392613115809
 30
0.0
 10
217.3349925886719
 20
197.5412509475971
 30
0.0
 10
217.3351566741121
 20
197.5437657335866
 30
0.0
 10
217.3350556695103
 20
197.5423192173603
 30
0.0
 10
217.339624218272
 20
197.6091087374251
 30
0.0
 10
217.3445699512068
 20
197.7319295178629
 30
0.0
 10
217.3358996009521
 20
197.8724094126019
 30
0.0
 10
217.2876680885881
 20
198.0768969084715
 30
0.0
 10
217.2113321742681
 20
198.2208335940448
 30
0.0
 10
217.141834510073
 20
198.3422959084114
 30
0.0
 10
217.0087487902446
 20
198.4906246710924
 30
0.0
 10
216.853216395994
 20
198.6234510810901
 30
0.0
 10
216.6635280755883
 20
198.7070975068941
 30
0.0
 10
216.5828596120647
 20
198.7347731850112
 30
0.0
 10
216.5719347003563
 20
198.738437776803
 30
0.0
 10
216.5733363400091
 20
198.7379700544911
 30
0.0
 10
216.5720777765607
 20
198.7384055116185
 30
0.0
 10
216.5707829792702
 20
198.7388519958693
 30
0.0
 10
216.5707647771882
 20
198.7388582859812
 30
0.0
 10
216.5707465751062
 20
198.7388645760931
 30
0.0
  0
LINE
  5
60
330
A
100
AcDbEntity
  8
0
  6
Continuous
 62
     7
370
    25
100
AcDbLine
 10
217.0501839695768
 20
195.7635284091153
 30
0.0
 11
217.334860276
 21
197.5392051984
 31
0.0
  0
SPLINE
  5
61
330
A
100
AcDbEntity
  8
0
  6
Continuous
 62
     7
370
    25
100
AcDbSpline
210
0.0
220
0.0
230
1.0
 70
     8
 71
     2
 72
    24
 73
    21
 74
     0
 42
0.000000001
 43
0.000001
 40
0.0
 40
0.0
 40
0.0
 40
1.0
 40
1.0
 40
2.0
 40
2.0
 40
3.0
 40
3.0
 40
4.0
 40
4.0
 40
5.0
 40
6.0
 40
7.0
 40
8.0
 40
9.0
 40
10.0
 40
11.0
 40
12.0
 40
13.0
 40
13.0
 40
14.0
 40
14.0
 40
14.0
 10
213.5164885583995
 20
198.9219917555667
 30
0.0
 10
213.5164868769839
 20
198.9219904639667
 30
0.0
 10
213.5164851955682
 20
198.9219891723667
 30
0.0
 10
213.516313691175
 20
198.9218574291663
 30
0.0
 10
213.5161421867813
 20
198.921725685966
 30
0.0
 10
213.5161405053657
 20
198.921724394366
 30
0.0
 10
213.5161388239501
 20
198.921723102766
 30
0.0
 10
213.5157503488548
 20
198.9214401579497
 30
0.0
 10
213.5153618737596
 20
198.9211572131335
 30
0.0
 10
213.4344914591463
 20
198.8609668702871
 30
0.0
 10
213.3634846338522
 20
198.734276862588
 30
0.0
 10
213.3161387845687
 20
198.6119930069598
 30
0.0
 10
213.2869026709985
 20
198.4824441423958
 30
0.0
 10
213.2756757741898
 20
198.4250905394923
 30
0.0
 10
213.2742877128971
 20
198.4178876599117
 30
0.0
 10
213.2731536409054
 20
198.411943285996
 30
0.0
 10
213.2733300354564
 20
198.4128700237832
 30
0.0
 10
213.273021837387
 20
198.4112772621323
 30
0.0
 10
213.2729178393255
 20
198.4107547094258
 30
0.0
 10
213.2729158994717
 20
198.4107447702727
 30
0.0
 10
213.2729139596178
 20
198.4107348311196
 30
0.0
  0
LINE
  5
62
330
A
100
AcDbEntity
  8
0
  6
Continuous
 62
     7
370
    25
100
AcDbLine
 10
230.4712039779
 20
190.895492748
 30
0.0
 11
230.3949485735
 21
191.1009842992
 31
0.0
  0
SPLINE
  5
63
330
A
100
AcDbEntity
  8
0
  6
Continuous
 62
     7
370
    25
100
AcDbSpline
210
0.0
220
0.0
230
1.0
 70
     8
 71
     2
 72
    27
 73
    24
 74
     0
 42
0.000000001
 43
0.000001
 40
0.0
 40
0.0
 40
0.0
 40
1.0
 40
1.0
 40
2.0
 40
3.0
 40
4.0
 40
5.0
 40
6.0
 40
7.0
 40
8.0
 40
9.0
 40
10.0
 40
11.0
 40
12.0
 40
13.0
 40
14.0
 40
15.0
 40
16.0
 40
17.0
 40
18.0
 40
19.0
 40
19.0
 40
20.0
 40
20.0
 40
20.0
 10
213.1296350783961
 20
201.4550395256492
 30
0.0
 10
213.1296407566601
 20
201.4550486078396
 30
0.0
 10
213.1296464349242
 20
201.4550576900301
 30
0.0
 10
213.1301516918672
 20
201.4558657894969
 30
0.0
 10
213.1309233629142
 20
201.4571015252212
 30
0.0
 10
213.1305830687976
 20
201.4565541185094
 30
0.0
 10
213.1322201229005
 20
201.4591840407824
 30
0.0
 10
213.1669555811581
 20
201.5163061001687
 30
0.0
 10
213.2193165074312
 20
201.5897450779786
 30
0.0
 10
213.2441346734503
 20
201.6171167982555
 30
0.0
 10
213.2696340220758
 20
201.6433893953534
 30
0.0
 10
213.3172000785001
 20
201.660928945097
 30
0.0
 10
213.3609329469488
 20
201.6465547708551
 30
0.0
 10
213.403551337306
 20
201.6248795845991
 30
0.0
 10
213.4269751341982
 20
201.5321161977593
 30
0.0
 10
213.4514187147782
 20
201.4310725676002
 30
0.0
 10
213.4625581063984
 20
201.3032240300259
 30
0.0
 10
213.4649493863496
 20
201.2394602554639
 30
0.0
 10
213.4656122485761
 20
201.2192578210648
 30
0.0
 10
213.4656744425989
 20
201.2173354410652
 30
0.0
 10
213.4656476763193
 20
201.2181693272782
 30
0.0
 10
213.4656871030067
 20
201.2169565868948
 30
0.0
 10
213.4656872080815
 20
201.2169533992943
 30
0.0
 10
213.4656873131563
 20
201.2169502116938
 30
0.0
  0
LINE
  5
64
330
A
100
AcDbEntity
  8
0
  6
Continuous
 62
     7
370
    25
100
AcDbLine
 10
213.4802407428
 20
200.598971415
 30
0.0
 11
213.3953243995
 21
200.4050569697
 31
0.0
  0
LINE
  5
65
330
A
100
AcDbEntity
  8
0
  6
Continuous
 62
     7
370
    25
100
AcDbLine
 10
217.8126818361
 20
199.3188118323
 30
0.0
 11
217.945790465
 21
199.5012265167
 31
0.0
  0
ARC
  5
66
330
A
100
AcDbEntity
  8
0
  6
Continuous
 62
     7
370
    25
100
AcDbCircle
 10
206.5172718575
 20
162.9095573319
 30
0.0
 40
38.12112406349717
100
AcDbArc
 50
72.7643022747
 51
79.60540970800001
  0
LINE
  5
67
330
A
100
AcDbEntity
  8
0
  6
Continuous
 62
     7
370
    25
100
AcDbLine
 10
229.585604476
 20
191.4021043779
 30
0.0
 11
229.4497176246
 21
191.415214661
 31
0.0
  0
SPLINE
  5
68
330
A
100
AcDbEntity
  8
0
  6
Continuous
 62
     7
370
    25
100
AcDbSpline
210
0.0
220
0.0
230
1.0
 70
     8
 71
     2
 72
    28
 73
    25
 74
     0
 42
0.000000001
 43
0.000001
 40
0.0
 40
0.0
 40
0.0
 40
1.0
 40
1.0
 40
2.0
 40
3.0
 40
4.0
 40
5.0
 40
6.0
 40
7.0
 40
8.0
 40
9.0
 40
10.0
 40
11.0
 40
12.0
 40
13.0
 40
14.0
 40
15.0
 40
16.0
 40
17.0
 40
18.0
 40
19.0
 40
20.0
 40
20.0
 40
21.0
 40
21.0
 40
21.0
 10
213.3807709926641
 20
201.0230365390247
 30
0.0
 10
213.3807703836006
 20
201.0230456627298
 30
0.0
 10
213.3807697745371
 20
201.023054786435
 30
0.0
 10
213.3807123040289
 20
201.0239159607201
 30
0.0
 10
213.3806563263888
 20
201.0247453220622
 30
0.0
 10
213.3806310300511
 20
201.0251436372577
 30
0.0
 10
213.3806835497584
 20
201.0242853801759
 30
0.0
 10
213.3802103812276
 20
201.0319467189706
 30
0.0
 10
213.3761218015746
 20
201.0962409593241
 30
0.0
 10
213.3680339244095
 20
201.1777055351387
 30
0.0
 10
213.3586001549186
 20
201.2402007975418
 30
0.0
 10
213.347163524374
 20
201.2772620793913
 30
0.0
 10
213.3345906070577
 20
201.3145048982225
 30
0.0
 10
213.3053155003849
 20
201.3499556507619
 30
0.0
 10
213.2609312432425
 20
201.3694646197076
 30
0.0
 10
213.2230501464998
 20
201.3420011812322
 30
0.0
 10
213.1826120003755
 20
201.309467965789
 30
0.0
 10
213.1559865416313
 20
201.2653280309724
 30
0.0
 10
213.132786629275
 20
201.225139820351
 30
0.0
 10
213.1234618434235
 20
201.2083480439632
 30
0.0
 10
213.1223424473708
 20
201.20631373622
 30
0.0
 10
213.1227429331611
 20
201.2070422614096
 30
0.0
 10
213.1222709062039
 20
201.2061849610449
 30
0.0
 10
213.122270086528
 20
201.2061834769059
 30
0.0
 10
213.1222692668522
 20
201.206181992767
 30
0.0
  0
LINE
  5
69
330
A
100
AcDbEntity
  8
0
  6
Continuous
 62
     7
370
    25
100
AcDbLine
 10
213.1222692669
 20
201.2061819928
 30
0.0
 11
212.9419194394
 21
200.8681235288
 31
0.0
  0
LINE
  5
6A
330
A
100
AcDbEntity
  8
0
  6
Continuous
 62
     7
370
    25
100
AcDbLine
 10
212.8276896532
 20
200.8890575547
 30
0.0
 11
213.1296350784
 21
201.4550395256
 31
0.0
  0
LINE
  5
6B
330
A
100
AcDbEntity
  8
0
  6
Continuous
 62
     7
370
    25
100
AcDbLine
 10
213.3807709927
 20
201.023036539
 30
0.0
 11
213.3953243995
 21
200.4050569697
 31
0.0
  0
SPLINE
  5
6C
330
A
100
AcDbEntity
  8
0
  6
Continuous
 62
     7
370
    25
100
AcDbSpline
210
0.0
220
0.0
230
1.0
 70
     8
 71
     2
 72
    25
 73
    22
 74
     0
 42
0.000000001
 43
0.000001
 40
0.0
 40
0.0
 40
0.0
 40
1.0
 40
1.0
 40
2.0
 40
3.0
 40
4.0
 40
5.0
 40
6.0
 40
7.0
 40
8.0
 40
9.0
 40
10.0
 40
11.0
 40
12.0
 40
13.0
 40
14.0
 40
15.0
 40
16.0
 40
17.0
 40
17.0
 40
18.0
 40
18.0
 40
18.0
 10
218.7343118368982
 20
198.2791666977282
 30
0.0
 10
218.7343081410881
 20
198.2791893598541
 30
0.0
 10
218.7343044452779
 20
198.2792120219799
 30
0.0
 10
218.7340429111903
 20
198.2808190515555
 30
0.0
 10
218.7337136356254
 20
198.2828501129203
 30
0.0
 10
218.7338970096144
 20
198.2816824546381
 30
0.0
 10
218.7253296154101
 20
198.3356017125454
 30
0.0
 10
218.70636286577
 20
198.4373136206646
 30
0.0
 10
218.6696410906433
 20
198.5547539173755
 30
0.0
 10
218.5889940312762
 20
198.7211771800986
 30
0.0
 10
218.4919636257957
 20
198.8453134287462
 30
0.0
 10
218.4054149157321
 20
198.9505126697286
 30
0.0
 10
218.2553765022822
 20
199.0829946215407
 30
0.0
 10
218.0879418872607
 20
199.2041390500814
 30
0.0
 10
217.901086437364
 20
199.2863287844553
 30
0.0
 10
217.8242011845873
 20
199.314620135868
 30
0.0
 10
217.8138155238408
 20
199.3183812164646
 30
0.0
 10
217.8151476161996
 20
199.317900539366
 30
0.0
 10
217.8139491960383
 20
199.3183439718709
 30
0.0
 10
217.8127164983301
 20
199.3187990177698
 30
0.0
 10
217.8126991672257
 20
199.3188054250512
 30
0.0
 10
217.8126818361213
 20
199.3188118323326
 30
0.0
  0
LINE
  5
6D
330
A
100
AcDbEntity
  8
0
  6
Continuous
 62
     7
370
    25
100
AcDbLine
 10
229.7035210478897
 20
186.6517095192133
 30
0.0
 11
230.3256581952
 21
185.0118550982
 31
0.0
  0
SPLINE
  5
6E
330
A
100
AcDbEntity
  8
0
  6
Continuous
 62
     7
370
    25
100
AcDbSpline
210
0.0
220
0.0
230
1.0
 70
     8
 71
     2
 72
    26
 73
    23
 74
     0
 42
0.000000001
 43
0.000001
 40
0.0
 40
0.0
 40
0.0
 40
1.0
 40
1.0
 40
2.0
 40
3.0
 40
4.0
 40
5.0
 40
6.0
 40
7.0
 40
8.0
 40
9.0
 40
10.0
 40
11.0
 40
12.0
 40
13.0
 40
14.0
 40
15.0
 40
16.0
 40
17.0
 40
18.0
 40
18.0
 40
19.0
 40
19.0
 40
19.0
 10
229.580217385299
 20
190.8427975385786
 30
0.0
 10
229.5802095322609
 20
190.842806395889
 30
0.0
 10
229.5802016792227
 20
190.8428152531994
 30
0.0
 10
229.5795154493596
 20
190.8435896654728
 30
0.0
 10
229.5786885366616
 20
190.8445236922476
 30
0.0
 10
229.579095269974
 20
190.8440599078693
 30
0.0
 10
229.5759323391476
 20
190.8476593934761
 30
0.0
 10
229.5545816378211
 20
190.8717983838915
 30
0.0
 10
229.5035281864133
 20
190.9279726714814
 30
0.0
 10
229.4188978861395
 20
190.9881084308957
 30
0.0
 10
229.338676668896
 20
190.9966876969509
 30
0.0
 10
229.2543660247547
 20
190.9843353487611
 30
0.0
 10
229.1251306271694
 20
190.9055173524193
 30
0.0
 10
229.062081657147
 20
190.8231365319113
 30
0.0
 10
229.0043793096515
 20
190.7428856238353
 30
0.0
 10
228.9548020610688
 20
190.6270244077387
 30
0.0
 10
228.9387062501122
 20
190.5855782648219
 30
0.0
 10
228.9370469335978
 20
190.5812806545744
 30
0.0
 10
228.9373056825032
 20
190.5819513665913
 30
0.0
 10
228.9369111436291
 20
190.5809346865116
 30
0.0
 10
228.9367828868375
 20
190.5806076308775
 30
0.0
 10
228.9367801186785
 20
190.5806005206358
 30
0.0
 10
228.9367773505195
 20
190.5805934103942
 30
0.0
  0
ARC
  5
6F
330
A
100
AcDbEntity
  8
0
  6
Continuous
 62
     7
370
    25
100
AcDbCircle
 10
220.7092348907
 20
184.7274246757
 30
0.0
 40
10.77460512832518
100
AcDbArc
 50
26.92071697570006
 51
34.5811429541999
  0
SPLINE
  5
70
330
A
100
AcDbEntity
  8
0
  6
Continuous
 62
     7
370
    25
100
AcDbSpline
210
0.0
220
0.0
230
1.0
 70
     8
 71
     2
 72
    24
 73
    21
 74
     0
 42
0.000000001
 43
0.000001
 40
0.0
 40
0.0
 40
0.0
 40
1.0
 40
1.0
 40
2.0
 40
3.0
 40
4.0
 40
5.0
 40
6.0
 40
7.0
 40
8.0
 40
9.0
 40
10.0
 40
11.0
 40
12.0
 40
13.0
 40
14.0
 40
15.0
 40
16.0
 40
16.0
 40
17.0
 40
17.0
 40
17.0
 10
230.2725154334805
 20
188.2226461575616
 30
0.0
 10
230.2725235071483
 20
188.2226718722594
 30
0.0
 10
230.2725315808161
 20
188.2226975869571
 30
0.0
 10
230.2731048022619
 20
188.2245224026957
 30
0.0
 10
230.2738308936125
 20
188.2268317835931
 30
0.0
 10
230.273405888773
 20
188.225489767813
 30
0.0
 10
230.2757698977671
 20
188.2329679228345
 30
0.0
 10
230.2938844190592
 20
188.290579726804
 30
0.0
 10
230.3475851184684
 20
188.4633892997399
 30
0.0
 10
230.3889027858832
 20
188.6835453888098
 30
0.0
 10
230.4214481105662
 20
188.9696554887941
 30
0.0
 10
230.416088442188
 20
189.1082205062659
 30
0.0
 10
230.4084044986366
 20
189.2532735529748
 30
0.0
 10
230.3860929902175
 20
189.4125985836896
 30
0.0
 10
230.3421666240849
 20
189.5443127823476
 30
0.0
 10
230.3196391680425
 20
189.5977413953109
 30
0.0
 10
230.3165641291097
 20
189.6048992662925
 30
0.0
 10
230.3176339944621
 20
189.6024325246076
 30
0.0
 10
230.3162480092945
 20
189.6056798332212
 30
0.0
 10
230.3162429392352
 20
189.6056919308189
 30
0.0
 10
230.3162378691759
 20
189.6057040284165
 30
0.0
  0
LINE
  5
71
330
A
100
AcDbEntity
  8
0
  6
Continuous
 62
     7
370
    25
100
AcDbLine
 10
229.7035210478897
 20
186.6517095192133
 30
0.0
 11
230.2725154335
 21
188.2226461576
 31
0.0
  0
LINE
  5
72
330
A
100
AcDbEntity
  8
0
  6
Continuous
 62
     7
370
    25
100
AcDbLine
 10
228.9901221543
 20
192.797895945
 30
0.0
 11
228.7171512786
 21
192.7003703152
 31
0.0
  0
SPLINE
  5
73
330
A
100
AcDbEntity
  8
0
  6
Continuous
 62
     7
370
    25
100
AcDbSpline
210
0.0
220
0.0
230
1.0
 70
     8
 71
     2
 72
    24
 73
    21
 74
     0
 42
0.000000001
 43
0.000001
 40
0.0
 40
0.0
 40
0.0
 40
1.0
 40
1.0
 40
2.0
 40
3.0
 40
4.0
 40
5.0
 40
6.0
 40
7.0
 40
8.0
 40
9.0
 40
10.0
 40
11.0
 40
12.0
 40
13.0
 40
14.0
 40
15.0
 40
16.0
 40
16.0
 40
17.0
 40
17.0
 40
17.0
 10
229.0957423056803
 20
190.9909309599632
 30
0.0
 10
229.0957404402886
 20
190.9909313996989
 30
0.0
 10
229.095738574897
 20
190.9909318394345
 30
0.0
 10
229.0956776591294
 20
190.9909437888937
 30
0.0
 10
229.0952073848396
 20
190.991057409898
 30
0.0
 10
229.0953804777194
 20
190.991014208779
 30
0.0
 10
229.0938365869087
 20
190.9913974131291
 30
0.0
 10
229.0783797964882
 20
190.9951778471892
 30
0.0
 10
229.0560418446771
 20
190.9989953431494
 30
0.0
 10
229.0293493600084
 20
191.0015335793257
 30
0.0
 10
228.9949480605152
 20
190.9923206576473
 30
0.0
 10
228.9643576126168
 20
190.976709574973
 30
0.0
 10
228.9337977586789
 20
190.9555821961698
 30
0.0
 10
228.9063157012147
 20
190.9338532457071
 30
0.0
 10
228.8917006317872
 20
190.9218666492848
 30
0.0
 10
228.8898030332931
 20
190.9203061221546
 30
0.0
 10
228.8899397061729
 20
190.920418612698
 30
0.0
 10
228.8893671994627
 20
190.9199490364953
 30
0.0
 10
228.8889942954485
 20
190.9196436142447
 30
0.0
 10
228.8889908828657
 20
190.9196408170319
 30
0.0
 10
228.8889874702829
 20
190.9196380198191
 30
0.0
  0
LINE
  5
74
330
A
100
AcDbEntity
  8
0
  6
Continuous
 62
     7
370
    25
100
AcDbLine
 10
230.2811792093
 20
190.1562279813
 30
0.0
 11
230.5705860873
 21
190.2260273881
 31
0.0
  0
ARC
  5
75
330
A
100
AcDbEntity
  8
0
  6
Continuous
 62
     7
370
    25
100
AcDbCircle
 10
220.3608064775
 20
185.8104340781
 30
0.0
 40
10.83049951696561
100
AcDbArc
 50
23.65666856880003
 51
39.50611152879998
  0
ARC
  5
76
330
A
100
AcDbEntity
  8
0
  6
Continuous
 62
     7
370
    25
100
AcDbCircle
 10
255.5584468045
 20
157.6517081329
 30
0.0
 40
1.71523210088163
100
AcDbArc
 50
351.4913347472999
 51
54.40488947070134
  0
LWPOLYLINE
  5
77
330
A
100
AcDbEntity
  8
0
  6
Continuous
 62
     7
370
    25
100
AcDbPolyline
 90
       14
 70
   128
 43
0.0
 10
253.0285818182
 20
153.2333907256
 10
253.1172659695
 20
153.1845941705
 10
253.4893438815
 20
153.0683889747
 10
253.9085283241
 20
153.0631961309
 10
254.3596687568
 20
153.1692051132
 10
254.8264598095
 20
153.3825830408
 10
255.2920304254
 20
153.6956181981
 10
255.7395536407
 20
154.0969965983
 10
256.152854994
 20
154.572211762
 10
256.516996416
 20
155.104088271
 10
256.8188170041
 20
155.6734019901
 10
257.0474082507
 20
156.2595778851
 10
257.1945081745
 20
156.8414278182
 10
257.2548001994
 20
157.3979241315
  0
LWPOLYLINE
  5
78
330
A
100
AcDbEntity
  8
0
  6
Continuous
 62
     7
370
    25
100
AcDbPolyline
 90
       28
 70
   128
 43
0.0
 10
182.2381807524
 20
188.2931920246
 10
182.2957741388
 20
189.0272477991
 10
182.4764772376
 20
189.9708192737
 10
182.7760915107
 20
190.9025236745
 10
183.1931303953
 20
191.8177467915
 10
183.7255307646
 20
192.7119529455
 10
184.3706528156
 20
193.5807121976
 10
185.1253007573
 20
194.4197209654
 10
185.9857365472
 20
195.2248219573
 10
186.9476970008
 20
195.9920258304
 10
188.0064147133
 20
196.7175333613
 10
189.1566474347
 20
197.3977475846
 10
190.3926937536
 20
198.0293004632
 10
191.708429631
 20
198.6090629439
 10
193.09733976
 20
199.1341609812
 10
194.5525386954
 20
199.6019949434
 10
196.0668199142
 20
200.0102460239
 10
197.6326800558
 20
200.3568914968
 10
199.242360384
 20
200.640214421
 10
200.8878870037
 20
200.858811273
 10
202.5611077047
 20
201.011597856
 10
204.2537306225
 20
201.0978190082
 10
205.9573729087
 20
201.1170462037
 10
207.6635906886
 20
201.0691842489
 10
209.3639344112
 20
200.9544708615
 10
211.0499763933
 20
200.7734735225
 10
212.7133655593
 20
200.5270901792
 10
213.395305687
 20
200.4058758571
  0
ARC
  5
79
330
A
100
AcDbEntity
  8
0
  6
Continuous
 62
     7
370
    25
100
AcDbCircle
 10
206.6613930521
 20
163.8595472656
 30
0.0
 40
37.16070655128199
100
AcDbArc
 50
72.0729122871
 51
78.8531994692
  0
ARC
  5
7A
330
A
100
AcDbEntity
  8
0
  6
Continuous
 62
     7
370
    25
100
AcDbCircle
 10
220.556162918
 20
186.181384101
 30
0.0
 40
10.32742449861111
100
AcDbArc
 50
20.00424548069994
 51
38.19696655959996
  0
ARC
  5
7B
330
A
100
AcDbEntity
  8
0
  6
Continuous
 62
     7
370
    25
100
AcDbCircle
 10
222.9536976273
 20
187.0724204542
 30
0.0
 40
7.766203263335997
100
AcDbArc
 50
358.4200598205999
 51
14.84949158669997
  0
LWPOLYLINE
  5
7C
330
A
100
AcDbEntity
  8
0
  6
Continuous
 62
     7
370
    25
100
AcDbPolyline
 90
       23
 70
   128
 43
0.0
 10
183.7159451741
 20
187.1412324939
 10
184.3667085747
 20
187.9743720914
 10
185.1489315208
 20
188.8080304422
 10
186.0365567129
 20
189.6066210485
 10
187.0251617546
 20
190.3661650647
 10
188.1098214046
 20
191.0828787725
 10
189.285131863
 20
191.7531917305
 10
190.5452384685
 20
192.3737637956
 10
191.8838620921
 20
192.9415043499
 10
193.2943353989
 20
193.4535836524
 10
194.7696294953
 20
193.9074521949
 10
196.302396965
 20
194.3008469053
 10
197.8849995477
 20
194.6318095945
 10
199.5095535933
 20
194.8986900908
 10
201.1679665576
 20
195.1001591457
 10
202.8519738465
 20
195.2352143446
 10
204.5531889653
 20
195.3031813329
 10
206.2631348259
 20
195.303721202
 10
207.9732920022
 20
195.2368336193
 10
209.6751419083
 20
195.10284947
 10
211.3602052956
 20
194.9024368937
 10
213.0200867793
 20
194.636594616
 10
213.2735228793
 20
194.5898115657
  0
LWPOLYLINE
  5
7D
330
A
100
AcDbEntity
  8
0
  6
Continuous
 62
     7
370
    25
100
AcDbPolyline
 90
        3
 70
   128
 43
0.0
 10
217.4622529099
 20
193.5572024955
 10
217.7668230797
 20
193.4613211881
 10
219.059774545
 20
193.0186024682
  0
ARC
  5
7E
330
A
100
AcDbEntity
  8
0
  6
Continuous
 62
     7
370
    25
100
AcDbCircle
 10
205.817106975
 20
166.0961947153
 30
0.0
 40
35.50326855029395
100
AcDbArc
 50
77.69002883940001
 51
116.577440723
  0
LWPOLYLINE
  5
7F
330
A
100
AcDbEntity
  8
0
  6
Continuous
 62
     7
370
    25
100
AcDbPolyline
 90
       86
 70
   128
 43
0.0
 10
222.0221242975
 20
180.6838212474
 10
223.1024023605
 20
179.9793338805
 10
224.0894475591
 20
179.2340719878
 10
224.9778658724
 20
178.4521040951
 10
225.7628085487
 20
177.6377030659
 10
226.4399870815
 20
176.7953159016
 10
227.0057022838
 20
175.9295430794
 10
227.456865431
 20
175.0451136567
 10
227.791011215
 20
174.1468578064
 10
228.0063157728
 20
173.2396823043
 10
228.1016032824
 20
172.328540892
 10
228.0763514704
 20
171.4184098241
 10
227.9307016124
 20
170.5142606883
 10
227.665446027
 20
169.6210310543
 10
227.282035541
 20
168.7435995861
 10
226.7825624901
 20
167.8867594174
 10
226.1697561101
 20
167.0551885304
 10
225.4469631976
 20
166.2534298287
 10
224.6181310129
 20
165.4858623102
 10
223.6877864616
 20
164.7566775143
 10
222.661009804
 20
164.0698589133
 10
221.543410655
 20
163.4291567338
 10
220.3410917774
 20
162.8380708925
 10
219.0606205581
 20
162.2998292458
 10
217.7089909912
 20
161.8173710363
 10
216.2935826325
 20
161.3933330956
 10
214.8221292754
 20
161.0300295345
 10
213.3026645408
 20
160.7294454686
 10
211.7434899077
 20
160.4932221184
 10
210.1531193753
 20
160.3226500617
 10
208.5402382353
 20
160.218661084
 10
206.9136579923
 20
160.1818223659
 10
205.282260308
 20
160.2123358267
 10
203.6549559679
 20
160.3100343792
 10
202.0406342534
 20
160.4743847634
 10
200.4481082992
 20
160.7044890468
 10
198.8860797491
 20
160.9990902441
 10
197.3630778246
 20
161.3565806498
 10
195.8874219577
 20
161.7750064245
 10
194.4671700456
 20
162.2520824146
 10
193.1100800596
 20
162.7852033913
 10
191.8235633399
 20
163.3714573196
 10
190.6146479338
 20
164.0076430864
 10
189.4899346685
 20
164.6902850993
 10
188.4555663508
 20
165.4156549965
 10
187.5171942294
 20
166.1797920024
 10
186.6799417994
 20
166.9785218805
 10
185.9483824563
 20
167.8074825595
 10
185.3265109271
 20
168.6621459961
 10
184.8177235422
 20
169.5378452279
 10
184.4248014249
 20
170.4297966391
 10
184.1498884213
 20
171.3331299423
 10
183.9944861043
 20
172.2429093052
 10
183.9594440984
 20
173.1541678717
 10
184.0449530606
 20
174.061927855
 10
184.2505466894
 20
174.9612309829
 10
184.5751010027
 20
175.8471668314
 10
185.0168445612
 20
176.7148952689
 10
185.5733644583
 20
177.559677501
 10
186.2416205895
 20
178.3769005828
 10
187.0179637728
 20
179.162099593
 10
187.8981525743
 20
179.9109877574
 10
188.8773827099
 20
180.6194729066
 10
189.9503029431
 20
181.2836871254
 10
191.1110541116
 20
181.9000023879
 10
192.3532973355
 20
182.4650521457
 10
193.6702468987
 20
182.9757509991
 10
195.054711611
 20
183.4293086549
 10
196.4991284462
 20
183.8232485494
 10
197.9956096508
 20
184.1554190019
 10
199.5359818712
 20
184.4240060317
 10
201.11183008
 20
184.6275428856
 10
202.7145506177
 20
184.7649170488
 10
204.3353885048
 20
184.8353792632
 10
205.9654908325
 20
184.8385435406
 10
207.5959558561
 20
184.7743943082
 10
209.2178768795
 20
184.643280129
 10
210.822395841
 20
184.4459181203
 10
212.4007510816
 20
184.1833860708
 10
213.9443206196
 20
183.857117285
 10
215.4446746074
 20
183.4688943785
 10
216.8936176384
 20
183.0208371701
 10
218.2832367713
 20
182.5153931362
 10
219.6059442538
 20
181.955323542
 10
220.8545119929
 20
181.3436855359
 10
222.0221242975
 20
180.6838212474
  0
LWPOLYLINE
  5
80
330
A
100
AcDbEntity
  8
0
  6
Continuous
 62
     7
370
    25
100
AcDbPolyline
 90
      102
 70
   128
 43
0.0
 10
184.6947788034
 20
186.4414637949
 10
183.3404847733
 20
185.7032913782
 10
182.0740888018
 20
184.9178053769
 10
180.9004906074
 20
184.0880445716
 10
179.8242310097
 20
183.2172188325
 10
178.8494714435
 20
182.3086986528
 10
177.9799869855
 20
181.365997234
 10
177.2191375113
 20
180.3927629247
 10
176.5698688073
 20
179.392759697
 10
176.0346930126
 20
178.3698571539
 10
175.6156799404
 20
177.3280131786
 10
175.3144510966
 20
176.2712579631
 10
175.132168499
 20
175.2036796843
 10
175.0695438821
 20
174.1294091162
 10
175.1268141575
 20
173.052601351
 10
175.3037606708
 20
171.9774241121
 10
175.5996963454
 20
170.908035399
 10
176.0134777484
 20
169.848573149
 10
176.5435042443
 20
168.8031361488
 10
177.1877252419
 20
167.7757690802
 10
177.9436487248
 20
166.7704467887
 10
178.8083491406
 20
165.7910589396
 10
179.7784808098
 20
164.841392832
 10
180.8502923688
 20
163.9251246337
 10
182.0196348794
 20
163.0457978719
 10
183.2819856376
 20
162.2068150144
 10
184.6324624762
 20
161.4114227568
 10
186.0658369184
 20
160.6626965003
 10
187.5765666165
 20
159.9635342333
 10
189.158804966
 20
159.3166401413
 10
190.806432075
 20
158.724517873
 10
192.5130733933
 20
158.1894577256
 10
194.2721241089
 20
157.7135293764
 10
196.0767817614
 20
157.2985741513
 10
197.9200634476
 20
156.9461991053
 10
199.7948368915
 20
156.657764196
 10
201.6938503699
 20
156.4343882461
 10
203.6097558202
 20
156.276934918
 10
205.5351410726
 20
156.1860112449
 10
207.4625577207
 20
156.1619718249
 10
209.3845496887
 20
156.2049090209
 10
211.293679688
 20
156.3146549977
 10
213.1825624166
 20
156.4907872046
 10
215.0438893416
 20
156.7326223816
 10
216.8704601359
 20
157.0392268811
 10
218.6552088738
 20
157.4094128322
 10
220.3912282453
 20
157.8417490769
 10
222.0718042468
 20
158.3345631096
 10
223.6904355436
 20
158.8859466651
 10
225.2408569716
 20
159.4937691617
 10
226.7170736338
 20
160.1556764663
 10
228.1133720243
 20
160.8691094941
 10
229.4243499824
 20
161.631308033
 10
230.6449384428
 20
162.4393218564
 10
231.7704108501
 20
163.2900270146
 10
232.7964173897
 20
164.1801304088
 10
233.7189857076
 20
165.1061888152
 10
234.5345469787
 20
166.0646207696
 10
235.2399475675
 20
167.0517168304
 10
235.8324554764
 20
168.0636586594
 10
236.309781992
 20
169.0965315169
 10
236.6700770711
 20
170.1463391255
 10
236.9119505076
 20
171.2090202257
 10
237.0344633373
 20
172.2804628398
 10
237.0371404974
 20
173.3565222218
 10
236.9199767431
 20
174.4330353606
 10
236.6834215679
 20
175.5058376717
 10
236.3283891009
 20
176.5707781003
 10
235.8562582463
 20
177.6237371304
 10
235.2688495755
 20
178.6606408104
 10
234.5684385645
 20
179.6774768444
 10
233.757735314
 20
180.6703129321
 10
232.8398754378
 20
181.6353068229
 10
231.8184090293
 20
182.5687250752
 10
230.6972897548
 20
183.466957216
 10
229.4808535259
 20
184.326527177
 10
228.1738091112
 20
185.1441110563
 10
226.7812096393
 20
185.9165438592
 10
225.3084444386
 20
186.6408380219
 10
223.7612123956
 20
187.3141920425
 10
222.1454968614
 20
187.9339996795
 10
220.4675526338
 20
188.4978638849
 10
218.7338681731
 20
189.0036031506
 10
216.9511511597
 20
189.4492602742
 10
215.1262988986
 20
189.8331112751
 10
213.2663715469
 20
190.1536710885
 10
211.3785646997
 20
190.40969965
 10
209.4701832592
 20
190.6002072001
 10
207.5486072114
 20
190.7244554543
 10
205.6212741653
 20
190.7819651851
 10
203.6956382551
 20
190.7725110089
 10
201.779150884
 20
190.696133074
 10
199.8792259147
 20
190.553125015
 10
198.0032129297
 20
190.3440403816
 10
196.1583706453
 20
190.0696876647
 10
194.3518378226
 20
189.7311283502
 10
192.5906014818
 20
189.3296735932
 10
190.8814773438
 20
188.8668742252
 10
189.2310749974
 20
188.3445230474
 10
187.6457818938
 20
187.7646394776
 10
186.131730698
 20
187.1294672193
 10
184.6947788034
 20
186.4414637949
  0
LWPOLYLINE
  5
81
330
A
100
AcDbEntity
  8
0
  6
Continuous
 62
     7
370
    25
100
AcDbPolyline
 90
       40
 70
   128
 43
0.0
 10
228.5456226022
 20
186.1881165862
 10
227.1739197315
 20
186.9721245665
 10
225.7206742913
 20
187.7087240273
 10
224.1915084154
 20
188.3950650566
 10
222.5923376031
 20
189.0284921244
 10
220.9293512226
 20
189.606555916
 10
219.2089801674
 20
190.1270178845
 10
217.4378822583
 20
190.58786665
 10
215.6229073129
 20
190.987318091
 10
213.771078531
 20
191.3238266419
 10
211.8895610994
 20
191.5960907784
 10
209.9856333632
 20
191.8030569436
 10
208.0666607609
 20
191.9439263215
 10
206.1400685958
 20
192.018150253
 10
204.2133083987
 20
192.0254446207
 10
202.293837695
 20
191.9657795114
 10
200.389079493
 20
191.8393872183
 10
198.5064042048
 20
191.6467558739
 10
196.6530954223
 20
191.3886306196
 10
194.8363233967
 20
191.0660101008
 10
193.0631171684
 20
190.6801422722
 10
191.3403373713
 20
190.2325205483
 10
189.6746459379
 20
189.7248769346
 10
188.0724909243
 20
189.1591742741
 10
186.5400682791
 20
188.5376024992
 10
185.0833076309
 20
187.8625656298
 10
183.7078464569
 20
187.1366743148
 10
182.4190027578
 20
186.3627390461
 10
181.2217652826
 20
185.5437522483
 10
180.1207645207
 20
184.6828835027
 10
179.1202617703
 20
183.7834624813
 10
178.224126863
 20
182.8489689999
 10
177.4358260362
 20
181.8830196468
 10
176.7584092731
 20
180.8893498328
 10
176.194500328
 20
179.87180439
 10
175.746274885
 20
178.8343206713
 10
175.4154723306
 20
177.7809116041
 10
175.2033714741
 20
176.7156532849
 10
175.1107890929
 20
175.642667015
 10
175.1105664066
 20
175.6352342658
  0
LWPOLYLINE
  5
82
330
A
100
AcDbEntity
  8
0
  6
Continuous
 62
     7
370
    25
100
AcDbPolyline
 90
       14
 70
   128
 43
0.0
 10
237.08342762
 20
173.8009296012
 10
237.0845444194
 20
174.331591585
 10
236.9973140623
 20
175.408382271
 10
236.7905393129
 20
176.4825019059
 10
236.4650167926
 20
177.5497953631
 10
236.0220063538
 20
178.6061339611
 10
235.4632212
 20
179.6474305067
 10
234.7908233367
 20
180.6696556268
 10
234.0074164552
 20
181.6688556587
 10
233.1160273176
 20
182.6411639478
 10
232.1201085942
 20
183.582820236
 10
231.0235107765
 20
184.490180169
 10
229.830476811
 20
185.3597336327
 10
228.5456226022
 20
186.1881165862
  0
LWPOLYLINE
  5
83
330
A
100
AcDbEntity
  8
0
  6
Continuous
 62
     7
370
    25
100
AcDbPolyline
 90
        3
 70
   128
 43
0.0
 10
219.056862807
 20
192.7681147434
 10
217.7594572568
 20
193.2124632689
 10
217.5120482929
 20
193.2905838951
  0
LWPOLYLINE
  5
84
330
A
100
AcDbEntity
  8
0
  6
Continuous
 62
     7
370
    25
100
AcDbPolyline
 90
       23
 70
   128
 43
0.0
 10
213.3009225921
 20
194.3344050656
 10
213.0127209563
 20
194.3877366968
 10
211.3528394727
 20
194.6535789746
 10
209.6677760853
 20
194.8539915508
 10
207.9659261792
 20
194.9879757002
 10
206.2557690029
 20
195.0548632828
 10
204.5458231424
 20
195.0543234137
 10
202.8446080235
 20
194.9863564255
 10
201.1606007346
 20
194.8513012266
 10
199.5021877703
 20
194.6498321716
 10
197.8776337247
 20
194.3829516754
 10
196.2950311421
 20
194.0519889861
 10
194.7622636723
 20
193.6585942758
 10
193.286969576
 20
193.2047257333
 10
191.8764962691
 20
192.6926464308
 10
190.5378726455
 20
192.1249058765
 10
189.27776604
 20
191.5043338113
 10
188.1024555816
 20
190.8340208534
 10
187.0177959316
 20
190.1173071455
 10
186.02919089
 20
189.3577631293
 10
185.1415656979
 20
188.559172523
 10
184.3593427517
 20
187.7255141723
 10
184.0184182742
 20
187.3089173858
  0
LWPOLYLINE
  5
85
330
A
100
AcDbEntity
  8
0
  6
Continuous
 62
     7
370
    25
100
AcDbPolyline
 90
       62
 70
   128
 43
0.0
 10
191.3237373879
 20
182.0031497426
 10
191.2158185303
 20
181.9389105555
 10
190.2243465414
 20
181.2935916141
 10
189.3282365673
 20
180.605438649
 10
188.5328790735
 20
179.8785893252
 10
187.8430579393
 20
179.117415275
 10
187.2629197572
 20
178.3264949304
 10
186.7959539345
 20
177.5105847005
 10
186.444970396
 20
176.674591792
 10
186.2120790818
 20
175.8235429257
 10
186.0986808462
 20
174.9625574418
 10
186.1054567134
 20
174.0968131085
 10
186.2323678926
 20
173.2315167102
 10
186.4786490807
 20
172.3718719241
 10
186.8428209652
 20
171.5230491133
 10
187.3226914251
 20
170.6901529332
 10
187.9153756432
 20
169.8781927845
 10
188.6173082231
 20
169.0920513325
 10
189.424268825
 20
168.3364568856
 10
190.3314050232
 20
167.6159544425
 10
191.3332589599
 20
166.9348759446
 10
192.4238065244
 20
166.2973180042
 10
193.5964890413
 20
165.7071151319
 10
194.8442537733
 20
165.1678166616
 10
196.1595959589
 20
164.6826657592
 10
197.5346050563
 20
164.2545804022
 10
198.9610135655
 20
163.8861358099
 10
200.430240745
 20
163.5795469569
 10
201.9334518079
 20
163.3366582779
 10
203.461604755
 20
163.1589295665
 10
205.0055097987
 20
163.0474308193
 10
206.5558822984
 20
163.0028319707
 10
208.1033974029
 20
163.0254013927
 10
209.6387486415
 20
163.11500426
 10
211.1527018593
 20
163.2710999707
 10
212.6361522733
 20
163.4927504904
 10
214.0801783308
 20
163.7786234744
 10
215.4760944147
 20
164.1269991054
 10
216.8155072186
 20
164.535781678
 10
218.0903598683
 20
165.0025135308
 10
219.2929848867
 20
165.5243877585
 10
220.4161510778
 20
166.0982649913
 10
221.4531034858
 20
166.7206938117
 10
222.3976045343
 20
167.3879317747
 10
223.2439739859
 20
168.0959658249
 10
223.9871229879
 20
168.8405368672
 10
224.6225813632
 20
169.6171680624
 10
225.1465263258
 20
170.4211881095
 10
225.5558080471
 20
171.2477615296
 10
225.8479664156
 20
172.0919173212
 10
226.021241248
 20
172.9485785731
 10
226.0745921168
 20
173.812593405
 10
226.0076983682
 20
174.6787651129
 10
225.8209612283
 20
175.5418848177
 10
225.515505812
 20
176.3967619108
 10
225.0931673036
 20
177.2382543055
 10
224.5564868349
 20
178.0613018496
 10
223.9086902804
 20
178.8609535208
 10
223.1536749211
 20
179.6324011538
 10
222.2959819136
 20
180.3710051976
 10
221.3407690501
 20
181.0723233117
 10
221.2752714282
 20
181.1166291403
  0
LWPOLYLINE
  5
86
330
A
100
AcDbEntity
  8
0
  6
Continuous
 62
     7
370
    25
100
AcDbPolyline
 90
       31
 70
   128
 43
0.0
 10
191.6262892235
 20
167.7328229005
 10
192.7380053023
 20
167.1067550166
 10
193.9301379224
 20
166.528957019
 10
195.1955165478
 20
166.0029034775
 10
196.5265327339
 20
165.53175875
 10
197.9151810819
 20
165.1183566493
 10
199.3531090234
 20
164.7651822888
 10
200.8316691762
 20
164.4743599074
 10
202.3419688434
 20
164.2476394127
 10
203.8749267995
 20
164.0863837785
 10
205.4213217984
 20
163.9915629749
 10
206.9718542106
 20
163.9637467144
 10
208.517198708
 20
164.0031033865
 10
210.0480620499
 20
164.109395141
 10
211.5552367347
 20
164.2819837751
 10
213.0296589821
 20
164.5198302214
 10
214.4624609253
 20
164.8215047129
 10
215.8450265589
 20
165.185192407
 10
217.1690402814
 20
165.6087067075
 10
218.4265379216
 20
166.089500986
 10
219.6099590524
 20
166.6246823946
 10
220.7121854556
 20
167.2110329555
 10
221.726587921
 20
167.8450262964
 10
222.6470661025
 20
168.5228494507
 10
223.4680845834
 20
169.2404255895
 10
224.1847052601
 20
169.993439179
 10
224.7926170308
 20
170.7773626304
 10
225.2881655233
 20
171.5874800997
 10
225.6683693762
 20
172.4189202028
 10
225.9309437867
 20
173.2666816811
 10
226.0677059098
 20
174.0608986714
  0
LWPOLYLINE
  5
87
330
A
100
AcDbEntity
  8
0
  6
Continuous
 62
     7
370
    25
100
AcDbPolyline
 90
       11
 70
   128
 43
0.0
 10
186.1223795221
 20
175.2432209491
 10
186.1544006077
 20
174.841814556
 10
186.3112534685
 20
173.9774435766
 10
186.5871739744
 20
173.1200220308
 10
186.9805035282
 20
172.2747054543
 10
187.488875087
 20
171.4465780113
 10
188.1092308331
 20
170.6406199061
 10
188.8378419975
 20
169.8616787639
 10
189.6703261469
 20
169.1144395368
 10
190.601675387
 20
168.4033953236
 10
191.6262892235
 20
167.7328229005
  0
LWPOLYLINE
  5
88
330
A
100
AcDbEntity
  8
0
  6
Continuous
 62
     8
370
    25
100
AcDbPolyline
 90
        8
 70
   128
 43
0.0
 10
227.3778334551
 20
195.5715380974
 10
227.3429457328
 20
195.8343463628
 10
227.1913015738
 20
196.1395725353
 10
226.9268602332
 20
196.4218351096
 10
226.5619851571
 20
196.6679349657
 10
226.1137387033
 20
196.8663656558
 10
225.6030802777
 20
197.0078483443
 10
225.1896089069
 20
197.0729173406
  0
LWPOLYLINE
  5
89
330
A
100
AcDbEntity
  8
0
  6
Continuous
 62
     8
370
    25
100
AcDbPolyline
 90
       12
 70
   128
 43
0.0
 10
219.9750771521
 20
200.0646232417
 10
219.9401895902
 20
200.3274314096
 10
219.7885454312
 20
200.6326575821
 10
219.5241040906
 20
200.9149201564
 10
219.1592290145
 20
201.1610200126
 10
218.7109825607
 20
201.3594507026
 10
218.2003241351
 20
201.5009333911
 10
217.6511312408
 20
201.5788527026
 10
217.0890830402
 20
201.5895649172
 10
216.5404610683
 20
201.5325694774
 10
216.0309176229
 20
201.4105312344
 10
215.5842802188
 20
201.2291571604
  0
SPLINE
  5
8A
330
A
100
AcDbEntity
  8
0
  6
Continuous
 62
     8
370
    25
100
AcDbSpline
210
0.0
220
0.0
230
1.0
 70
     8
 71
     2
 72
    23
 73
    20
 74
     0
 42
0.000000001
 43
0.000001
 40
0.0
 40
0.0
 40
0.0
 40
1.0
 40
1.0
 40
2.0
 40
3.0
 40
4.0
 40
5.0
 40
6.0
 40
7.0
 40
8.0
 40
9.0
 40
10.0
 40
11.0
 40
12.0
 40
13.0
 40
14.0
 40
15.0
 40
15.0
 40
16.0
 40
16.0
 40
16.0
 10
225.3389490819115
 20
188.2419370818137
 30
0.0
 10
225.3389865122989
 20
188.2419111802731
 30
0.0
 10
225.3390239426864
 20
188.2418852787325
 30
0.0
 10
225.3408306537029
 20
188.2406272889091
 30
0.0
 10
225.3452018817182
 20
188.2376120327447
 30
0.0
 10
225.3436990446732
 20
188.2386394176066
 30
0.0
 10
225.358771119176
 20
188.228310156988
 30
0.0
 10
225.448728036423
 20
188.1662251572993
 30
0.0
 10
225.6127702447324
 20
188.046552242962
 30
0.0
 10
225.7185218070292
 20
187.952534284873
 30
0.0
 10
225.8266927533975
 20
187.8517971342566
 30
0.0
 10
225.9574308332166
 20
187.6868412087243
 30
0.0
 10
226.0334804189098
 20
187.5818543050876
 30
0.0
 10
226.0721162475674
 20
187.5273618117088
 30
0.0
 10
226.0789765171606
 20
187.5176600245128
 30
0.0
 10
226.07849305077
 20
187.5183444297772
 30
0.0
 10
226.0797589923373
 20
187.5165582136053
 30
0.0
 10
226.0810028581403
 20
187.5148029029477
 30
0.0
 10
226.0810190661576
 20
187.5147800325065
 30
0.0
 10
226.081035274175
 20
187.5147571620653
 30
0.0
  0
SPLINE
  5
8B
330
A
100
AcDbEntity
  8
0
  6
Continuous
 62
     8
370
    25
100
AcDbSpline
210
0.0
220
0.0
230
1.0
 70
     8
 71
     2
 72
    27
 73
    24
 74
     0
 42
0.000000001
 43
0.000001
 40
0.0
 40
0.0
 40
0.0
 40
1.0
 40
1.0
 40
2.0
 40
2.0
 40
3.0
 40
3.0
 40
4.0
 40
4.0
 40
5.0
 40
6.0
 40
7.0
 40
8.0
 40
9.0
 40
10.0
 40
11.0
 40
12.0
 40
13.0
 40
14.0
 40
15.0
 40
16.0
 40
16.0
 40
17.0
 40
17.0
 40
17.0
 10
224.3621086499502
 20
188.2818715924918
 30
0.0
 10
224.3621135101025
 20
188.2818783125709
 30
0.0
 10
224.3621183702548
 20
188.2818850326499
 30
0.0
 10
224.3625169027432
 20
188.2824360791324
 30
0.0
 10
224.3629154352316
 20
188.2829871256143
 30
0.0
 10
224.3629202953839
 20
188.2829938456933
 30
0.0
 10
224.3629251555362
 20
188.2830005657724
 30
0.0
 10
224.3632182713524
 20
188.2834271908486
 30
0.0
 10
224.3635113871686
 20
188.2838538159249
 30
0.0
 10
224.3889860917219
 20
188.3213121774216
 30
0.0
 10
224.4678000159533
 20
188.4062302871184
 30
0.0
 10
224.5767593123528
 20
188.4418716817653
 30
0.0
 10
224.6951560040183
 20
188.4558151327018
 30
0.0
 10
224.8663195745328
 20
188.4311929812762
 30
0.0
 10
225.0586050466995
 20
188.3685377921323
 30
0.0
 10
225.2255009152568
 20
188.2947106000462
 30
0.0
 10
225.3073466550419
 20
188.2567385473759
 30
0.0
 10
225.3240781639782
 20
188.2489070688958
 30
0.0
 10
225.3344009449432
 20
188.24405791183
 30
0.0
 10
225.3329655698275
 20
188.24473305177
 30
0.0
 10
225.3366901894026
 20
188.2429907478534
 30
0.0
 10
225.3388774401677
 20
188.2419705504701
 30
0.0
 10
225.3389132610396
 20
188.2419538161419
 30
0.0
 10
225.3389490819115
 20
188.2419370818137
 30
0.0
  0
SPLINE
  5
8C
330
A
100
AcDbEntity
  8
0
  6
Continuous
 62
     8
370
    25
100
AcDbSpline
210
0.0
220
0.0
230
1.0
 70
     8
 71
     2
 72
    25
 73
    22
 74
     0
 42
0.000000001
 43
0.000001
 40
0.0
 40
0.0
 40
0.0
 40
1.0
 40
1.0
 40
2.0
 40
3.0
 40
4.0
 40
5.0
 40
6.0
 40
7.0
 40
8.0
 40
9.0
 40
10.0
 40
11.0
 40
12.0
 40
13.0
 40
14.0
 40
15.0
 40
16.0
 40
17.0
 40
17.0
 40
18.0
 40
18.0
 40
18.0
 10
225.4525876265193
 20
187.9847740792312
 30
0.0
 10
225.4525649295661
 20
187.9847855385761
 30
0.0
 10
225.4525422326128
 20
187.9847969979211
 30
0.0
 10
225.4513940283621
 20
187.9853717437577
 30
0.0
 10
225.448229409728
 20
187.9869754863597
 30
0.0
 10
225.4492904535088
 20
187.9864328845321
 30
0.0
 10
225.4418663612283
 20
187.9902213941576
 30
0.0
 10
225.3715596449422
 20
188.0259636219828
 30
0.0
 10
225.2446826644291
 20
188.0857437884249
 30
0.0
 10
225.1893558978579
 20
188.1056521505829
 30
0.0
 10
225.1341941205328
 20
188.124249269551
 30
0.0
 10
225.0402095741448
 20
188.1457553683335
 30
0.0
 10
224.9609083668208
 20
188.1427475170916
 30
0.0
 10
224.8944577874999
 20
188.1340158865723
 30
0.0
 10
224.824935957183
 20
188.1163313907931
 30
0.0
 10
224.7914916488197
 20
188.1070130364529
 30
0.0
 10
224.7847501112698
 20
188.1051057826765
 30
0.0
 10
224.7852181993393
 20
188.1052385289989
 30
0.0
 10
224.7836075311323
 20
188.1047857347943
 30
0.0
 10
224.7825856637733
 20
188.1044995185514
 30
0.0
 10
224.7825716660464
 20
188.1044955901569
 30
0.0
 10
224.7825576683195
 20
188.1044916617624
 30
0.0
  0
LINE
  5
8D
330
A
100
AcDbEntity
  8
0
  6
Continuous
 62
     8
370
    25
100
AcDbLine
 10
225.8561739846
 20
187.6535746941
 30
0.0
 11
225.4525876265
 21
187.9847740792
 31
0.0
  0
LINE
  5
8E
330
A
100
AcDbEntity
  8
0
  6
Continuous
 62
     8
370
    25
100
AcDbLine
 10
213.3671081851
 20
201.1545068352
 30
0.0
 11
213.1222692669
 21
201.2061819928
 31
0.0
  0
MTEXT
  5
8F
330
A
100
AcDbEntity
  8
0
 62
     7
100
AcDbMText
 10
261.8321505660363
 20
108.5911258097282
 30
0.0
 40
2.910416666666666
 41
0.0
 46
2.910416666666666
 71
     1
 72
     1
  1
{GHBH-D03-UTC}
  7
ＭＳ Ｐゴシック
 73
     1
 44
1.011713887312668
  0
ENDSEC
  0
SECTION
  2
OBJECTS
  0
DICTIONARY
  5
19
330
0
100
AcDbDictionary
281
     1
  3
ACAD_DETAILVIEWSTYLE
350
D9
  3
ACAD_GROUP
350
1A
  3
ACAD_LAYOUT
350
1E
  3
ACAD_MATERIAL
350
CB
  3
ACAD_MLEADERSTYLE
350
D1
  3
ACAD_MLINESTYLE
350
1B
  3
ACAD_PLOTSETTINGS
350
22
  3
ACAD_PLOTSTYLENAME
350
1F
  3
ACAD_SCALELIST
350
90
  3
ACAD_SECTIONVIEWSTYLE
350
DA
  3
ACAD_TABLESTYLE
350
CF
  3
ACAD_VISUALSTYLE
350
B2
  3
ACAD_WIPEOUT_VARS
350
23
  3
ACDB_RECOMPOSE_DATA
350
DE
  3
AcDbVariableDictionary
350
D4
  3
APPDATA
350
D3
  0
SUN
  5
DB
330
15
100
AcDbSun
 90
        1
290
     0
 63
     7
421
 16777215
 40
1.0
291
     1
 91
  2455826
 92
 54000000
292
     0
 70
     2
 71
   256
280
     1
  0
DICTIONARY
  5
D9
102
{ACAD_REACTORS
330
19
102
}
330
19
100
AcDbDictionary
281
     1
  0
DICTIONARY
  5
1A
102
{ACAD_REACTORS
330
19
102
}
330
19
100
AcDbDictionary
281
     1
  0
DICTIONARY
  5
1E
102
{ACAD_REACTORS
330
19
102
}
330
19
100
AcDbDictionary
281
     1
  3
Layout1
350
21
  3
Model
350
20
  0
DICTIONARY
  5
CB
102
{ACAD_REACTORS
330
19
102
}
330
19
100
AcDbDictionary
281
     1
  3
ByBlock
350
CD
  3
ByLayer
350
CC
  3
Global
350
CE
  0
DICTIONARY
  5
D1
102
{ACAD_REACTORS
330
19
102
}
330
19
100
AcDbDictionary
281
     1
  3
Standard
350
D2
  0
DICTIONARY
  5
1B
102
{ACAD_REACTORS
330
19
102
}
330
19
100
AcDbDictionary
281
     1
  3
Standard
350
1C
  0
DICTIONARY
  5
22
102
{ACAD_REACTORS
330
19
102
}
330
19
100
AcDbDictionary
281
     1
  0
ACDBDICTIONARYWDFLT
  5
1F
102
{ACAD_REACTORS
330
19
102
}
330
19
100
AcDbDictionary
281
     1
  3
Normal
350
1D
100
AcDbDictionaryWithDefault
340
1D
  0
DICTIONARY
  5
90
102
{ACAD_REACTORS
330
19
102
}
330
19
100
AcDbDictionary
281
     1
  3
A0
350
91
  3
A1
350
92
  3
A2
350
93
  3
A3
350
94
  3
A4
350
95
  3
A5
350
96
  3
A6
350
97
  3
A7
350
98
  3
A8
350
99
  3
A9
350
9A
  3
B0
350
9B
  3
B1
350
9C
  3
B2
350
9D
  3
B3
350
9E
  3
B4
350
9F
  3
B5
350
A0
  3
B6
350
A1
  3
B7
350
A2
  3
B8
350
A3
  3
B9
350
A4
  3
C0
350
A5
  3
C1
350
A6
  3
C2
350
A7
  3
C3
350
A8
  3
C4
350
A9
  3
C5
350
AA
  3
C6
350
AB
  3
C7
350
AC
  3
C8
350
AD
  3
C9
350
AE
  3
D0
350
AF
  3
D1
350
B0
  3
D2
350
B1
  0
DICTIONARY
  5
DA
102
{ACAD_REACTORS
330
19
102
}
330
19
100
AcDbDictionary
281
     1
  0
DICTIONARY
  5
CF
102
{ACAD_REACTORS
330
19
102
}
330
19
100
AcDbDictionary
281
     1
  3
Standard
350
D0
  0
DICTIONARY
  5
B2
102
{ACAD_REACTORS
330
19
102
}
330
19
100
AcDbDictionary
281
     1
  3
2dWireframe
350
B7
  3
Basic
350
BA
  3
Brighten
350
BE
  3
ColorChange
350
C2
  3
Conceptual
350
BC
  3
Dim
350
BD
  3
EdgeColorOff
350
C5
  3
Facepattern
350
C1
  3
Flat
350
B3
  3
FlatWithEdges
350
B4
  3
Gouraud
350
B5
  3
GouraudWithEdges
350
B6
  3
Hidden
350
B9
  3
JitterOff
350
C3
  3
Linepattern
350
C0
  3
OverhangOff
350
C4
  3
Realistic
350
BB
  3
Shaded
350
CA
  3
Shaded with edges
350
C9
  3
Shades of Gray
350
C6
  3
Sketchy
350
C7
  3
Thicken
350
BF
  3
Wireframe
350
B8
  3
X-Ray
350
C8
  0
WIPEOUTVARIABLES
  5
23
330
19
100
AcDbWipeoutVariables
 70
     1
  0
XRECORD
  5
DE
102
{ACAD_REACTORS
330
19
102
}
330
19
100
AcDbXrecord
280
     1
 90
        1
330
D0
  0
DICTIONARY
  5
D4
102
{ACAD_REACTORS
330
19
102
}
330
19
100
AcDbDictionary
281
     1
  3
CANNOSCALE
350
D5
  3
CMLEADERSTYLE
350
D7
  3
CTABLESTYLE
350
D6
  3
MSLTSCALE
350
D8
  0
DICTIONARY
  5
D3
102
{ACAD_REACTORS
330
19
102
}
330
19
100
AcDbDictionary
281
     1
  0
LAYOUT
  5
21
102
{ACAD_REACTORS
330
1E
102
}
330
1E
100
AcDbPlotSettings
  1

  2

  4

  6

 40
0.0
 41
0.0
 42
0.0
 43
0.0
 44
0.0
 45
0.0
 46
0.0
 47
0.0
 48
0.0
 49
0.0
140
0.0
141
0.0
142
1.0
143
1.0
 70
     0
 72
     0
 73
     0
 74
     0
  7

 75
     0
 76
     0
 77
     2
 78
   300
147
1.0
148
0.0
149
0.0
100
AcDbLayout
  1
Layout1
 70
     0
 71
     0
 10
0.0
 20
0.0
 11
0.0
 21
0.0
 12
0.0
 22
0.0
 32
0.0
 14
0.0
 24
0.0
 34
0.0
 15
0.0
 25
0.0
 35
0.0
146
0.0
 13
0.0
 23
0.0
 33
0.0
 16
0.0
 26
0.0
 36
0.0
 17
0.0
 27
0.0
 37
0.0
 76
     0
330
B
  0
LAYOUT
  5
20
102
{ACAD_REACTORS
330
1E
102
}
330
1E
100
AcDbPlotSettings
  1

  2

  4

  6

 40
0.0
 41
0.0
 42
0.0
 43
0.0
 44
0.0
 45
0.0
 46
0.0
 47
0.0
 48
0.0
 49
0.0
140
0.0
141
0.0
142
1.0
143
1.0
 70
  1024
 72
     0
 73
     0
 74
     0
  7

 75
     0
 76
     0
 77
     2
 78
   300
147
1.0
148
0.0
149
0.0
100
AcDbLayout
  1
Model
 70
     0
 71
     1
 10
0.0
 20
0.0
 11
0.0
 21
0.0
 12
0.0
 22
0.0
 32
0.0
 14
175.0695438821
 24
105.6816189894623
 34
0.0
 15
291.5790327301812
 25
201.7886136730369
 35
0.0
146
0.0
 13
0.0
 23
0.0
 33
0.0
 16
0.0
 26
0.0
 36
0.0
 17
0.0
 27
0.0
 37
0.0
 76
     0
330
A
331
15
  0
MATERIAL
  5
CD
102
{ACAD_REACTORS
330
CB
102
}
330
CB
100
AcDbMaterial
  1
ByBlock
 72
     1
 94
      127
  0
MATERIAL
  5
CC
102
{ACAD_REACTORS
330
CB
102
}
330
CB
100
AcDbMaterial
  1
ByLayer
 72
     1
 94
      127
  0
MATERIAL
  5
CE
102
{ACAD_REACTORS
330
CB
102
}
330
CB
100
AcDbMaterial
  1
Global
 72
     1
 94
      127
  0
MLEADERSTYLE
  5
D2
102
{ACAD_REACTORS
330
D1
102
}
330
D1
100
AcDbMLeaderStyle
179
     2
170
     2
171
     1
172
     0
 90
        2
 40
0.0
 41
0.0
173
     1
 91
-1056964608
340
11
 92
       -2
290
     1
 42
2.0
291
     1
 43
8.0
  3
Standard
341
0
 44
4.0
300

342
17
174
     1
178
     1
175
     1
176
     0
 93
-1056964608
 45
4.0
292
     0
297
     0
 46
4.0
343
0
 94
-1056964608
 47
1.0
 49
1.0
140
1.0
293
     1
141
0.0
294
     1
177
     0
142
1.0
295
     0
296
     0
143
3.75
271
     0
272
     9
273
     9
298
     0
  0
MLINESTYLE
  5
1C
102
{ACAD_REACTORS
330
1B
102
}
330
1B
100
AcDbMlineStyle
  2
Standard
 70
     0
  3

 62
     0
 51
90.0
 52
90.0
 71
     2
 49
0.5
 62
   256
  6
BYLAYER
 49
-0.5
 62
   256
  6
BYLAYER
  0
ACDBPLACEHOLDER
  5
1D
102
{ACAD_REACTORS
330
1F
102
}
330
1F
  0
SCALE
  5
91
102
{ACAD_REACTORS
330
90
102
}
330
90
100
AcDbScale
 70
     0
300
1:1
140
1.0
141
1.0
290
     1
  0
SCALE
  5
92
102
{ACAD_REACTORS
330
90
102
}
330
90
100
AcDbScale
 70
     0
300
1:2
140
1.0
141
2.0
290
     0
  0
SCALE
  5
93
102
{ACAD_REACTORS
330
90
102
}
330
90
100
AcDbScale
 70
     0
300
1:4
140
1.0
141
4.0
290
     0
  0
SCALE
  5
94
102
{ACAD_REACTORS
330
90
102
}
330
90
100
AcDbScale
 70
     0
300
1:5
140
1.0
141
5.0
290
     0
  0
SCALE
  5
95
102
{ACAD_REACTORS
330
90
102
}
330
90
100
AcDbScale
 70
     0
300
1:8
140
1.0
141
8.0
290
     0
  0
SCALE
  5
96
102
{ACAD_REACTORS
330
90
102
}
330
90
100
AcDbScale
 70
     0
300
1:10
140
1.0
141
10.0
290
     0
  0
SCALE
  5
97
102
{ACAD_REACTORS
330
90
102
}
330
90
100
AcDbScale
 70
     0
300
1:16
140
1.0
141
16.0
290
     0
  0
SCALE
  5
98
102
{ACAD_REACTORS
330
90
102
}
330
90
100
AcDbScale
 70
     0
300
1:20
140
1.0
141
20.0
290
     0
  0
SCALE
  5
99
102
{ACAD_REACTORS
330
90
102
}
330
90
100
AcDbScale
 70
     0
300
1:30
140
1.0
141
30.0
290
     0
  0
SCALE
  5
9A
102
{ACAD_REACTORS
330
90
102
}
330
90
100
AcDbScale
 70
     0
300
1:40
140
1.0
141
40.0
290
     0
  0
SCALE
  5
9B
102
{ACAD_REACTORS
330
90
102
}
330
90
100
AcDbScale
 70
     0
300
1:50
140
1.0
141
50.0
290
     0
  0
SCALE
  5
9C
102
{ACAD_REACTORS
330
90
102
}
330
90
100
AcDbScale
 70
     0
300
1:100
140
1.0
141
100.0
290
     0
  0
SCALE
  5
9D
102
{ACAD_REACTORS
330
90
102
}
330
90
100
AcDbScale
 70
     0
300
2:1
140
2.0
141
1.0
290
     0
  0
SCALE
  5
9E
102
{ACAD_REACTORS
330
90
102
}
330
90
100
AcDbScale
 70
     0
300
4:1
140
4.0
141
1.0
290
     0
  0
SCALE
  5
9F
102
{ACAD_REACTORS
330
90
102
}
330
90
100
AcDbScale
 70
     0
300
8:1
140
8.0
141
1.0
290
     0
  0
SCALE
  5
A0
102
{ACAD_REACTORS
330
90
102
}
330
90
100
AcDbScale
 70
     0
300
10:1
140
10.0
141
1.0
290
     0
  0
SCALE
  5
A1
102
{ACAD_REACTORS
330
90
102
}
330
90
100
AcDbScale
 70
     0
300
100:1
140
100.0
141
1.0
290
     0
  0
SCALE
  5
A2
102
{ACAD_REACTORS
330
90
102
}
330
90
100
AcDbScale
 70
     0
300
1/128" = 1'-0"
140
0.0078125
141
12.0
290
     0
  0
SCALE
  5
A3
102
{ACAD_REACTORS
330
90
102
}
330
90
100
AcDbScale
 70
     0
300
1/64" = 1'-0"
140
0.015625
141
12.0
290
     0
  0
SCALE
  5
A4
102
{ACAD_REACTORS
330
90
102
}
330
90
100
AcDbScale
 70
     0
300
1/32" = 1'-0"
140
0.03125
141
12.0
290
     0
  0
SCALE
  5
A5
102
{ACAD_REACTORS
330
90
102
}
330
90
100
AcDbScale
 70
     0
300
1/16" = 1'-0"
140
0.0625
141
12.0
290
     0
  0
SCALE
  5
A6
102
{ACAD_REACTORS
330
90
102
}
330
90
100
AcDbScale
 70
     0
300
3/32" = 1'-0"
140
0.09375
141
12.0
290
     0
  0
SCALE
  5
A7
102
{ACAD_REACTORS
330
90
102
}
330
90
100
AcDbScale
 70
     0
300
1/8" = 1'-0"
140
0.125
141
12.0
290
     0
  0
SCALE
  5
A8
102
{ACAD_REACTORS
330
90
102
}
330
90
100
AcDbScale
 70
     0
300
3/16" = 1'-0"
140
0.1875
141
12.0
290
     0
  0
SCALE
  5
A9
102
{ACAD_REACTORS
330
90
102
}
330
90
100
AcDbScale
 70
     0
300
1/4" = 1'-0"
140
0.25
141
12.0
290
     0
  0
SCALE
  5
AA
102
{ACAD_REACTORS
330
90
102
}
330
90
100
AcDbScale
 70
     0
300
3/8" = 1'-0"
140
0.375
141
12.0
290
     0
  0
SCALE
  5
AB
102
{ACAD_REACTORS
330
90
102
}
330
90
100
AcDbScale
 70
     0
300
1/2" = 1'-0"
140
0.5
141
12.0
290
     0
  0
SCALE
  5
AC
102
{ACAD_REACTORS
330
90
102
}
330
90
100
AcDbScale
 70
     0
300
3/4" = 1'-0"
140
0.75
141
12.0
290
     0
  0
SCALE
  5
AD
102
{ACAD_REACTORS
330
90
102
}
330
90
100
AcDbScale
 70
     0
300
1" = 1'-0"
140
1.0
141
12.0
290
     0
  0
SCALE
  5
AE
102
{ACAD_REACTORS
330
90
102
}
330
90
100
AcDbScale
 70
     0
300
1-1/2" = 1'-0"
140
1.5
141
12.0
290
     0
  0
SCALE
  5
AF
102
{ACAD_REACTORS
330
90
102
}
330
90
100
AcDbScale
 70
     0
300
3" = 1'-0"
140
3.0
141
12.0
290
     0
  0
SCALE
  5
B0
102
{ACAD_REACTORS
330
90
102
}
330
90
100
AcDbScale
 70
     0
300
6" = 1'-0"
140
6.0
141
12.0
290
     0
  0
SCALE
  5
B1
102
{ACAD_REACTORS
330
90
102
}
330
90
100
AcDbScale
 70
     0
300
1'-0" = 1'-0"
140
12.0
141
12.0
290
     0
  0
TABLESTYLE
  5
D0
102
{ACAD_REACTORS
330
CF
102
}
102
{ACAD_XDICTIONARY
360
DC
102
}
330
CF
100
AcDbTableStyle
  3
Standard
 70
     0
 71
     0
 40
1.5
 41
1.5
280
     0
281
     0
  7
Standard
140
4.5
170
     2
 62
     0
 63
   257
283
     0
 90
        4
 91
        0
  1

274
    -2
284
     1
 64
     0
275
    -2
285
     1
 65
     0
276
    -2
286
     1
 66
     0
277
    -2
287
     1
 67
     0
278
    -2
288
     1
 68
     0
279
    -2
289
     1
 69
     0
  7
Standard
140
6.0
170
     5
 62
     0
 63
   257
283
     0
 90
        4
 91
        0
  1

274
    -2
284
     1
 64
     0
275
    -2
285
     1
 65
     0
276
    -2
286
     1
 66
     0
277
    -2
287
     1
 67
     0
278
    -2
288
     1
 68
     0
279
    -2
289
     1
 69
     0
  7
Standard
140
4.5
170
     5
 62
     0
 63
   257
283
     0
 90
        4
 91
        0
  1

274
    -2
284
     1
 64
     0
275
    -2
285
     1
 65
     0
276
    -2
286
     1
 66
     0
277
    -2
287
     1
 67
     0
278
    -2
288
     1
 68
     0
279
    -2
289
     1
 69
     0
  0
VISUALSTYLE
  5
B7
102
{ACAD_REACTORS
330
B2
102
}
330
B2
100
AcDbVisualStyle
  2
2dWireframe
 70
     4
177
     3
291
     0
 70
    58
 90
        0
176
     1
 90
        2
176
     1
 90
        0
176
     1
 90
        0
176
     1
 40
0.6
176
     1
 40
30.0
176
     1
 62
     7
420
 16777215
176
     1
 90
        1
176
     1
 90
        4
176
     1
 62
     7
176
     1
 62
   257
176
     1
 90
        1
176
     1
 90
        1
176
     1
 40
1.0
176
     1
 90
        0
176
     1
 62
   257
176
     1
 40
1.0
176
     1
 90
        1
176
     1
 90
        6
176
     1
 90
        2
176
     1
 62
     7
176
     1
 90
        5
176
     1
 90
        0
176
     1
 90
        0
176
     1
290
     0
176
     1
 90
        1
176
     1
 40
0.0
176
     1
 90
        0
176
     1
290
     1
176
     1
290
     1
176
     1
290
     0
176
     1
290
     0
176
     1
290
     0
176
     1
290
     0
176
     1
290
     0
176
     1
290
     0
176
     1
290
     0
176
     1
 90
       50
176
     1
 40
0.0
176
     1
 40
1.0
176
     1
 90
        0
176
     1
 62
    18
420
        0
176
     1
 90
       50
176
     1
 90
        3
176
     1
 62
     5
420
      255
176
     1
290
     0
176
     1
 90
       50
176
     1
 90
       50
176
     1
 90
       50
176
     1
290
     0
176
     1
 90
       50
176
     1
 62
   256
176
     0
 40
1.0
176
     0
 90
        2
176
     1
  1
strokes_ogs.tif
176
     1
290
     0
176
     1
 40
1.0
176
     1
 40
1.0
176
     1
  0
VISUALSTYLE
  5
BA
102
{ACAD_REACTORS
330
B2
102
}
330
B2
100
AcDbVisualStyle
  2
Basic
 70
     7
177
     3
291
     1
 70
    58
 90
        1
176
     1
 90
        0
176
     1
 90
        1
176
     1
 90
        0
176
     1
 40
0.6
176
     1
 40
30.0
176
     1
 62
     7
420
 16777215
176
     1
 90
        0
176
     1
 90
        4
176
     1
 62
     7
176
     1
 62
   257
176
     1
 90
        1
176
     1
 90
        1
176
     1
 40
1.0
176
     1
 90
        8
176
     1
 62
     7
176
     1
 40
1.0
176
     1
 90
        1
176
     1
 90
        6
176
     1
 90
        2
176
     1
 62
     7
176
     1
 90
        5
176
     1
 90
        0
176
     1
 90
        0
176
     1
290
     0
176
     1
 90
        1
176
     1
 40
0.0
176
     1
 90
        0
176
     1
290
     0
176
     1
290
     1
176
     1
290
     1
176
     1
290
     0
176
     1
290
     0
176
     1
290
     0
176
     1
290
     0
176
     1
290
     0
176
     1
290
     0
176
     1
 90
       50
176
     1
 40
0.0
176
     1
 40
1.0
176
     1
 90
        0
176
     1
 62
    18
420
        0
176
     1
 90
       50
176
     1
 90
        3
176
     1
 62
     5
420
      255
176
     1
290
     0
176
     1
 90
       50
176
     1
 90
       50
176
     1
 90
       50
176
     1
290
     0
176
     1
 90
       50
176
     1
 62
   256
176
     0
 40
1.0
176
     0
 90
        2
176
     1
  1
strokes_ogs.tif
176
     1
290
     0
176
     1
 40
1.0
176
     1
 40
1.0
176
     1
  0
VISUALSTYLE
  5
BE
102
{ACAD_REACTORS
330
B2
102
}
330
B2
100
AcDbVisualStyle
  2
Brighten
 70
    12
177
     3
291
     1
 70
    58
 90
        2
176
     1
 90
        2
176
     1
 90
        0
176
     1
 90
        0
176
     1
 40
0.6
176
     1
 40
30.0
176
     1
 62
     7
420
 16777215
176
     1
 90
        1
176
     1
 90
        4
176
     1
 62
     7
176
     1
 62
   257
176
     1
 90
        1
176
     1
 90
        1
176
     1
 40
1.0
176
     1
 90
        8
176
     1
 62
     7
176
     1
 40
1.0
176
     1
 90
        1
176
     1
 90
        6
176
     1
 90
        2
176
     1
 62
     7
176
     1
 90
        5
176
     1
 90
        0
176
     1
 90
        0
176
     1
290
     0
176
     1
 90
        1
176
     1
 40
50.0
176
     1
 90
        0
176
     1
290
     0
176
     1
290
     1
176
     1
290
     1
176
     1
290
     0
176
     1
290
     0
176
     1
290
     0
176
     1
290
     0
176
     1
290
     0
176
     1
290
     0
176
     1
 90
       50
176
     1
 40
0.0
176
     1
 40
1.0
176
     1
 90
        0
176
     1
 62
    18
420
        0
176
     1
 90
       50
176
     1
 90
        3
176
     1
 62
     5
420
      255
176
     1
290
     0
176
     1
 90
       50
176
     1
 90
       50
176
     1
 90
       50
176
     1
290
     0
176
     1
 90
       50
176
     1
 62
   256
176
     0
 40
1.0
176
     0
 90
        2
176
     1
  1
strokes_ogs.tif
176
     1
290
     0
176
     1
 40
1.0
176
     1
 40
1.0
176
     1
  0
VISUALSTYLE
  5
C2
102
{ACAD_REACTORS
330
B2
102
}
330
B2
100
AcDbVisualStyle
  2
ColorChange
 70
    16
177
     3
291
     1
 70
    58
 90
        2
176
     1
 90
        2
176
     1
 90
        3
176
     1
 90
        0
176
     1
 40
0.6
176
     1
 40
30.0
176
     1
 62
     8
420
  8421504
176
     1
 90
        1
176
     1
 90
        4
176
     1
 62
     7
176
     1
 62
   257
176
     1
 90
        1
176
     1
 90
        1
176
     1
 40
1.0
176
     1
 90
        8
176
     1
 62
     8
420
  8421504
176
     1
 40
1.0
176
     1
 90
        1
176
     1
 90
        6
176
     1
 90
        2
176
     1
 62
     7
176
     1
 90
        5
176
     1
 90
        0
176
     1
 90
        0
176
     1
290
     0
176
     1
 90
        1
176
     1
 40
0.0
176
     1
 90
        0
176
     1
290
     0
176
     1
290
     1
176
     1
290
     1
176
     1
290
     0
176
     1
290
     0
176
     1
290
     0
176
     1
290
     0
176
     1
290
     0
176
     1
290
     0
176
     1
 90
       50
176
     1
 40
0.0
176
     1
 40
1.0
176
     1
 90
        0
176
     1
 62
    18
420
        0
176
     1
 90
       50
176
     1
 90
        3
176
     1
 62
     5
420
      255
176
     1
290
     0
176
     1
 90
       50
176
     1
 90
       50
176
     1
 90
       50
176
     1
290
     0
176
     1
 90
       50
176
     1
 62
   256
176
     0
 40
1.0
176
     0
 90
        2
176
     1
  1
strokes_ogs.tif
176
     1
290
     0
176
     1
 40
1.0
176
     1
 40
1.0
176
     1
  0
VISUALSTYLE
  5
BC
102
{ACAD_REACTORS
330
B2
102
}
330
B2
100
AcDbVisualStyle
  2
Conceptual
 70
     9
177
     3
291
     0
 70
    58
 90
        3
176
     1
 90
        2
176
     1
 90
        0
176
     1
 90
        0
176
     1
 40
0.6
176
     1
 40
30.0
176
     1
 62
     7
420
 16777215
176
     1
 90
        2
176
     1
 90
        2
176
     1
 62
     7
176
     1
 62
   257
176
     1
 90
        1
176
     1
 90
        1
176
     1
 40
179.0
176
     1
 90
        8
176
     1
 62
     7
176
     1
 40
1.0
176
     1
 90
        1
176
     1
 90
        6
176
     1
 90
        2
176
     1
 62
     7
176
     1
 90
        3
176
     1
 90
        0
176
     1
 90
        0
176
     1
290
     0
176
     1
 90
        1
176
     1
 40
0.0
176
     1
 90
        0
176
     1
290
     0
176
     1
290
     1
176
     1
290
     1
176
     1
290
     0
176
     1
290
     0
176
     1
290
     0
176
     1
290
     0
176
     1
290
     0
176
     1
290
     0
176
     1
 90
       50
176
     1
 40
0.0
176
     1
 40
1.0
176
     1
 90
        0
176
     1
 62
    18
420
        0
176
     1
 90
       50
176
     1
 90
        3
176
     1
 62
     5
420
      255
176
     1
290
     0
176
     1
 90
       50
176
     1
 90
       50
176
     1
 90
       50
176
     1
290
     0
176
     1
 90
       50
176
     1
 62
   256
176
     0
 40
1.0
176
     0
 90
        2
176
     1
  1
strokes_ogs.tif
176
     1
290
     0
176
     1
 40
1.0
176
     1
 40
1.0
176
     1
  0
VISUALSTYLE
  5
BD
102
{ACAD_REACTORS
330
B2
102
}
330
B2
100
AcDbVisualStyle
  2
Dim
 70
    11
177
     3
291
     1
 70
    58
 90
        2
176
     1
 90
        2
176
     1
 90
        0
176
     1
 90
        0
176
     1
 40
0.6
176
     1
 40
30.0
176
     1
 62
     7
420
 16777215
176
     1
 90
        1
176
     1
 90
        4
176
     1
 62
     7
176
     1
 62
   257
176
     1
 90
        1
176
     1
 90
        1
176
     1
 40
1.0
176
     1
 90
        8
176
     1
 62
     7
176
     1
 40
1.0
176
     1
 90
        1
176
     1
 90
        6
176
     1
 90
        2
176
     1
 62
     7
176
     1
 90
        5
176
     1
 90
        0
176
     1
 90
        0
176
     1
290
     0
176
     1
 90
        1
176
     1
 40
-50.0
176
     1
 90
        0
176
     1
290
     0
176
     1
290
     1
176
     1
290
     1
176
     1
290
     0
176
     1
290
     0
176
     1
290
     0
176
     1
290
     0
176
     1
290
     0
176
     1
290
     0
176
     1
 90
       50
176
     1
 40
0.0
176
     1
 40
1.0
176
     1
 90
        0
176
     1
 62
    18
420
        0
176
     1
 90
       50
176
     1
 90
        3
176
     1
 62
     5
420
      255
176
     1
290
     0
176
     1
 90
       50
176
     1
 90
       50
176
     1
 90
       50
176
     1
290
     0
176
     1
 90
       50
176
     1
 62
   256
176
     0
 40
1.0
176
     0
 90
        2
176
     1
  1
strokes_ogs.tif
176
     1
290
     0
176
     1
 40
1.0
176
     1
 40
1.0
176
     1
  0
VISUALSTYLE
  5
C5
102
{ACAD_REACTORS
330
B2
102
}
330
B2
100
AcDbVisualStyle
  2
EdgeColorOff
 70
    22
177
     3
291
     1
 70
    58
 90
        2
176
     0
 90
        2
176
     0
 90
        0
176
     0
 90
        0
176
     0
 40
0.6
176
     0
 40
30.0
176
     0
 62
     7
420
 16777215
176
     0
 90
        1
176
     0
 90
        4
176
     0
 62
     7
176
     0
 62
   257
176
     0
 90
        1
176
     0
 90
        1
176
     0
 40
1.0
176
     0
 90
        8
176
     2
 62
     7
176
     0
 40
1.0
176
     0
 90
        1
176
     0
 90
        6
176
     0
 90
        2
176
     0
 62
     7
176
     0
 90
        5
176
     0
 90
        0
176
     0
 90
        0
176
     0
290
     0
176
     0
 90
        1
176
     0
 40
0.0
176
     0
 90
        0
176
     0
290
     0
176
     0
290
     1
176
     0
290
     1
176
     0
290
     0
176
     0
290
     0
176
     0
290
     0
176
     0
290
     0
176
     0
290
     0
176
     0
290
     0
176
     0
 90
       50
176
     0
 40
0.0
176
     0
 40
1.0
176
     0
 90
        0
176
     0
 62
    18
420
        0
176
     0
 90
       50
176
     0
 90
        3
176
     0
 62
     5
420
      255
176
     0
290
     0
176
     0
 90
       50
176
     0
 90
       50
176
     0
 90
       50
176
     0
290
     0
176
     0
 90
       50
176
     0
 62
   256
176
     0
 40
1.0
176
     0
 90
        2
176
     0
  1
strokes_ogs.tif
176
     0
290
     0
176
     0
 40
1.0
176
     0
 40
1.0
176
     0
  0
VISUALSTYLE
  5
C1
102
{ACAD_REACTORS
330
B2
102
}
330
B2
100
AcDbVisualStyle
  2
Facepattern
 70
    15
177
     3
291
     1
 70
    58
 90
        2
176
     1
 90
        2
176
     1
 90
        0
176
     1
 90
        0
176
     1
 40
0.6
176
     1
 40
30.0
176
     1
 62
     7
420
 16777215
176
     1
 90
        1
176
     1
 90
        4
176
     1
 62
     7
176
     1
 62
   257
176
     1
 90
        1
176
     1
 90
        1
176
     1
 40
1.0
176
     1
 90
        8
176
     1
 62
     7
176
     1
 40
1.0
176
     1
 90
        1
176
     1
 90
        6
176
     1
 90
        2
176
     1
 62
     7
176
     1
 90
        5
176
     1
 90
        0
176
     1
 90
        0
176
     1
290
     0
176
     1
 90
        1
176
     1
 40
0.0
176
     1
 90
        0
176
     1
290
     0
176
     1
290
     1
176
     1
290
     1
176
     1
290
     0
176
     1
290
     0
176
     1
290
     0
176
     1
290
     0
176
     1
290
     0
176
     1
290
     0
176
     1
 90
       50
176
     1
 40
0.0
176
     1
 40
1.0
176
     1
 90
        0
176
     1
 62
    18
420
        0
176
     1
 90
       50
176
     1
 90
        3
176
     1
 62
     5
420
      255
176
     1
290
     0
176
     1
 90
       50
176
     1
 90
       50
176
     1
 90
       50
176
     1
290
     0
176
     1
 90
       50
176
     1
 62
   256
176
     0
 40
1.0
176
     0
 90
        2
176
     1
  1
strokes_ogs.tif
176
     1
290
     0
176
     1
 40
1.0
176
     1
 40
1.0
176
     1
  0
VISUALSTYLE
  5
B3
102
{ACAD_REACTORS
330
B2
102
}
330
B2
100
AcDbVisualStyle
  2
Flat
 70
     0
177
     3
291
     1
 70
    58
 90
        2
176
     1
 90
        1
176
     1
 90
        1
176
     1
 90
        2
176
     1
 40
0.6
176
     1
 40
30.0
176
     1
 62
     7
420
 16777215
176
     1
 90
        0
176
     1
 90
        0
176
     1
 62
     7
176
     1
 62
   257
176
     1
 90
        1
176
     1
 90
        1
176
     1
 40
1.0
176
     1
 90
        8
176
     1
 62
     7
176
     1
 40
1.0
176
     1
 90
        1
176
     1
 90
        6
176
     1
 90
        2
176
     1
 62
     7
176
     1
 90
        5
176
     1
 90
        0
176
     1
 90
        0
176
     1
290
     0
176
     1
 90
       13
176
     1
 40
0.0
176
     1
 90
        0
176
     1
290
     0
176
     1
290
     1
176
     1
290
     1
176
     1
290
     0
176
     1
290
     0
176
     1
290
     0
176
     1
290
     0
176
     1
290
     0
176
     1
290
     0
176
     1
 90
       50
176
     1
 40
0.0
176
     1
 40
1.0
176
     1
 90
        0
176
     1
 62
    18
420
        0
176
     1
 90
       50
176
     1
 90
        3
176
     1
 62
     5
420
      255
176
     1
290
     0
176
     1
 90
       50
176
     1
 90
       50
176
     1
 90
       50
176
     1
290
     0
176
     1
 90
       50
176
     1
 62
   256
176
     0
 40
1.0
176
     0
 90
        2
176
     1
  1
strokes_ogs.tif
176
     1
290
     0
176
     1
 40
1.0
176
     1
 40
1.0
176
     1
  0
VISUALSTYLE
  5
B4
102
{ACAD_REACTORS
330
B2
102
}
330
B2
100
AcDbVisualStyle
  2
FlatWithEdges
 70
     1
177
     3
291
     1
 70
    58
 90
        2
176
     1
 90
        1
176
     1
 90
        1
176
     1
 90
        2
176
     1
 40
0.6
176
     1
 40
30.0
176
     1
 62
     7
420
 16777215
176
     1
 90
        1
176
     1
 90
        0
176
     1
 62
     7
176
     1
 62
   257
176
     1
 90
        1
176
     1
 90
        1
176
     1
 40
1.0
176
     1
 90
        0
176
     1
 62
   257
176
     1
 40
1.0
176
     1
 90
        1
176
     1
 90
        6
176
     1
 90
        2
176
     1
 62
     7
176
     1
 90
        5
176
     1
 90
        0
176
     1
 90
        0
176
     1
290
     0
176
     1
 90
       13
176
     1
 40
0.0
176
     1
 90
        0
176
     1
290
     0
176
     1
290
     1
176
     1
290
     1
176
     1
290
     0
176
     1
290
     0
176
     1
290
     0
176
     1
290
     0
176
     1
290
     0
176
     1
290
     0
176
     1
 90
       50
176
     1
 40
0.0
176
     1
 40
1.0
176
     1
 90
        0
176
     1
 62
    18
420
        0
176
     1
 90
       50
176
     1
 90
        3
176
     1
 62
     5
420
      255
176
     1
290
     0
176
     1
 90
       50
176
     1
 90
       50
176
     1
 90
       50
176
     1
290
     0
176
     1
 90
       50
176
     1
 62
   256
176
     0
 40
1.0
176
     0
 90
        2
176
     1
  1
strokes_ogs.tif
176
     1
290
     0
176
     1
 40
1.0
176
     1
 40
1.0
176
     1
  0
VISUALSTYLE
  5
B5
102
{ACAD_REACTORS
330
B2
102
}
330
B2
100
AcDbVisualStyle
  2
Gouraud
 70
     2
177
     3
291
     1
 70
    58
 90
        2
176
     1
 90
        2
176
     1
 90
        1
176
     1
 90
        2
176
     1
 40
0.6
176
     1
 40
30.0
176
     1
 62
     7
420
 16777215
176
     1
 90
        0
176
     1
 90
        0
176
     1
 62
     7
176
     1
 62
   257
176
     1
 90
        1
176
     1
 90
        1
176
     1
 40
1.0
176
     1
 90
        0
176
     1
 62
     7
176
     1
 40
1.0
176
     1
 90
        1
176
     1
 90
        6
176
     1
 90
        2
176
     1
 62
     7
176
     1
 90
        5
176
     1
 90
        0
176
     1
 90
        0
176
     1
290
     0
176
     1
 90
       13
176
     1
 40
0.0
176
     1
 90
        0
176
     1
290
     0
176
     1
290
     1
176
     1
290
     1
176
     1
290
     0
176
     1
290
     0
176
     1
290
     0
176
     1
290
     0
176
     1
290
     0
176
     1
290
     0
176
     1
 90
       50
176
     1
 40
0.0
176
     1
 40
1.0
176
     1
 90
        0
176
     1
 62
    18
420
        0
176
     1
 90
       50
176
     1
 90
        3
176
     1
 62
     5
420
      255
176
     1
290
     0
176
     1
 90
       50
176
     1
 90
       50
176
     1
 90
       50
176
     1
290
     0
176
     1
 90
       50
176
     1
 62
   256
176
     0
 40
1.0
176
     0
 90
        2
176
     1
  1
strokes_ogs.tif
176
     1
290
     0
176
     1
 40
1.0
176
     1
 40
1.0
176
     1
  0
VISUALSTYLE
  5
B6
102
{ACAD_REACTORS
330
B2
102
}
330
B2
100
AcDbVisualStyle
  2
GouraudWithEdges
 70
     3
177
     3
291
     1
 70
    58
 90
        2
176
     1
 90
        2
176
     1
 90
        1
176
     1
 90
        2
176
     1
 40
0.6
176
     1
 40
30.0
176
     1
 62
     7
420
 16777215
176
     1
 90
        1
176
     1
 90
        0
176
     1
 62
     7
176
     1
 62
   257
176
     1
 90
        1
176
     1
 90
        1
176
     1
 40
1.0
176
     1
 90
        0
176
     1
 62
   257
176
     1
 40
1.0
176
     1
 90
        1
176
     1
 90
        6
176
     1
 90
        2
176
     1
 62
     7
176
     1
 90
        5
176
     1
 90
        0
176
     1
 90
        0
176
     1
290
     0
176
     1
 90
       13
176
     1
 40
0.0
176
     1
 90
        0
176
     1
290
     0
176
     1
290
     1
176
     1
290
     1
176
     1
290
     0
176
     1
290
     0
176
     1
290
     0
176
     1
290
     0
176
     1
290
     0
176
     1
290
     0
176
     1
 90
       50
176
     1
 40
0.0
176
     1
 40
1.0
176
     1
 90
        0
176
     1
 62
    18
420
        0
176
     1
 90
       50
176
     1
 90
        3
176
     1
 62
     5
420
      255
176
     1
290
     0
176
     1
 90
       50
176
     1
 90
       50
176
     1
 90
       50
176
     1
290
     0
176
     1
 90
       50
176
     1
 62
   256
176
     0
 40
1.0
176
     0
 90
        2
176
     1
  1
strokes_ogs.tif
176
     1
290
     0
176
     1
 40
1.0
176
     1
 40
1.0
176
     1
  0
VISUALSTYLE
  5
B9
102
{ACAD_REACTORS
330
B2
102
}
330
B2
100
AcDbVisualStyle
  2
Hidden
 70
     6
177
     3
291
     0
 70
    58
 90
        1
176
     1
 90
        2
176
     1
 90
        2
176
     1
 90
        0
176
     1
 40
0.6
176
     1
 40
30.0
176
     1
 62
     7
420
 16777215
176
     1
 90
        2
176
     1
 90
        2
176
     1
 62
     7
176
     1
 62
   257
176
     1
 90
        2
176
     1
 90
        1
176
     1
 40
40.0
176
     1
 90
        0
176
     1
 62
   257
176
     1
 40
1.0
176
     1
 90
        1
176
     1
 90
        6
176
     1
 90
        2
176
     1
 62
     7
176
     1
 90
        3
176
     1
 90
        0
176
     1
 90
        0
176
     1
290
     0
176
     1
 90
        1
176
     1
 40
0.0
176
     1
 90
        0
176
     1
290
     0
176
     1
290
     1
176
     1
290
     1
176
     1
290
     0
176
     1
290
     0
176
     1
290
     0
176
     1
290
     0
176
     1
290
     0
176
     1
290
     0
176
     1
 90
       50
176
     1
 40
0.0
176
     1
 40
1.0
176
     1
 90
        0
176
     1
 62
    18
420
        0
176
     1
 90
       50
176
     1
 90
        3
176
     1
 62
     5
420
      255
176
     1
290
     0
176
     1
 90
       50
176
     1
 90
       50
176
     1
 90
       50
176
     1
290
     0
176
     1
 90
       50
176
     1
 62
   256
176
     0
 40
1.0
176
     0
 90
        2
176
     1
  1
strokes_ogs.tif
176
     1
290
     0
176
     1
 40
1.0
176
     1
 40
1.0
176
     1
  0
VISUALSTYLE
  5
C3
102
{ACAD_REACTORS
330
B2
102
}
330
B2
100
AcDbVisualStyle
  2
JitterOff
 70
    20
177
     3
291
     1
 70
    58
 90
        2
176
     0
 90
        2
176
     0
 90
        0
176
     0
 90
        0
176
     0
 40
0.6
176
     0
 40
30.0
176
     0
 62
     7
420
 16777215
176
     0
 90
        1
176
     0
 90
        4
176
     0
 62
     7
176
     0
 62
   257
176
     0
 90
        1
176
     0
 90
        1
176
     0
 40
1.0
176
     0
 90
       10
176
     2
 62
     7
176
     0
 40
1.0
176
     0
 90
        1
176
     0
 90
        6
176
     0
 90
        2
176
     0
 62
     7
176
     0
 90
        5
176
     0
 90
        0
176
     0
 90
        0
176
     0
290
     0
176
     0
 90
        1
176
     0
 40
0.0
176
     0
 90
        0
176
     0
290
     0
176
     0
290
     1
176
     0
290
     1
176
     0
290
     0
176
     0
290
     0
176
     0
290
     0
176
     0
290
     0
176
     0
290
     0
176
     0
290
     0
176
     0
 90
       50
176
     0
 40
0.0
176
     0
 40
1.0
176
     0
 90
        0
176
     0
 62
    18
420
        0
176
     0
 90
       50
176
     0
 90
        3
176
     0
 62
     5
420
      255
176
     0
290
     0
176
     0
 90
       50
176
     0
 90
       50
176
     0
 90
       50
176
     0
290
     0
176
     0
 90
       50
176
     0
 62
   256
176
     0
 40
1.0
176
     0
 90
        2
176
     0
  1
strokes_ogs.tif
176
     0
290
     0
176
     0
 40
1.0
176
     0
 40
1.0
176
     0
  0
VISUALSTYLE
  5
C0
102
{ACAD_REACTORS
330
B2
102
}
330
B2
100
AcDbVisualStyle
  2
Linepattern
 70
    14
177
     3
291
     1
 70
    58
 90
        2
176
     1
 90
        2
176
     1
 90
        0
176
     1
 90
        0
176
     1
 40
0.6
176
     1
 40
30.0
176
     1
 62
     7
420
 16777215
176
     1
 90
        1
176
     1
 90
        4
176
     1
 62
     7
176
     1
 62
   257
176
     1
 90
        7
176
     1
 90
        7
176
     1
 40
1.0
176
     1
 90
        8
176
     1
 62
     7
176
     1
 40
1.0
176
     1
 90
        1
176
     1
 90
        6
176
     1
 90
        2
176
     1
 62
     7
176
     1
 90
        5
176
     1
 90
        0
176
     1
 90
        0
176
     1
290
     0
176
     1
 90
        1
176
     1
 40
0.0
176
     1
 90
        0
176
     1
290
     0
176
     1
290
     1
176
     1
290
     1
176
     1
290
     0
176
     1
290
     0
176
     1
290
     0
176
     1
290
     0
176
     1
290
     0
176
     1
290
     0
176
     1
 90
       50
176
     1
 40
0.0
176
     1
 40
1.0
176
     1
 90
        0
176
     1
 62
    18
420
        0
176
     1
 90
       50
176
     1
 90
        3
176
     1
 62
     5
420
      255
176
     1
290
     0
176
     1
 90
       50
176
     1
 90
       50
176
     1
 90
       50
176
     1
290
     0
176
     1
 90
       50
176
     1
 62
   256
176
     0
 40
1.0
176
     0
 90
        2
176
     1
  1
strokes_ogs.tif
176
     1
290
     0
176
     1
 40
1.0
176
     1
 40
1.0
176
     1
  0
VISUALSTYLE
  5
C4
102
{ACAD_REACTORS
330
B2
102
}
330
B2
100
AcDbVisualStyle
  2
OverhangOff
 70
    21
177
     3
291
     1
 70
    58
 90
        2
176
     0
 90
        2
176
     0
 90
        0
176
     0
 90
        0
176
     0
 40
0.6
176
     0
 40
30.0
176
     0
 62
     7
420
 16777215
176
     0
 90
        1
176
     0
 90
        4
176
     0
 62
     7
176
     0
 62
   257
176
     0
 90
        1
176
     0
 90
        1
176
     0
 40
1.0
176
     0
 90
        9
176
     2
 62
     7
176
     0
 40
1.0
176
     0
 90
        1
176
     0
 90
        6
176
     0
 90
        2
176
     0
 62
     7
176
     0
 90
        5
176
     0
 90
        0
176
     0
 90
        0
176
     0
290
     0
176
     0
 90
        1
176
     0
 40
0.0
176
     0
 90
        0
176
     0
290
     0
176
     0
290
     1
176
     0
290
     1
176
     0
290
     0
176
     0
290
     0
176
     0
290
     0
176
     0
290
     0
176
     0
290
     0
176
     0
290
     0
176
     0
 90
       50
176
     0
 40
0.0
176
     0
 40
1.0
176
     0
 90
        0
176
     0
 62
    18
420
        0
176
     0
 90
       50
176
     0
 90
        3
176
     0
 62
     5
420
      255
176
     0
290
     0
176
     0
 90
       50
176
     0
 90
       50
176
     0
 90
       50
176
     0
290
     0
176
     0
 90
       50
176
     0
 62
   256
176
     0
 40
1.0
176
     0
 90
        2
176
     0
  1
strokes_ogs.tif
176
     0
290
     0
176
     0
 40
1.0
176
     0
 40
1.0
176
     0
  0
VISUALSTYLE
  5
BB
102
{ACAD_REACTORS
330
B2
102
}
330
B2
100
AcDbVisualStyle
  2
Realistic
 70
     8
177
     3
291
     0
 70
    58
 90
        2
176
     1
 90
        3
176
     1
 90
        0
176
     1
 90
        2
176
     1
 40
0.6
176
     1
 40
30.0
176
     1
 62
     7
420
 16777215
176
     1
 90
        0
176
     1
 90
        0
176
     1
 62
     7
176
     1
 62
   257
176
     1
 90
        1
176
     1
 90
        1
176
     1
 40
1.0
176
     1
 90
        8
176
     1
 62
   257
176
     1
 40
1.0
176
     1
 90
        1
176
     1
 90
        6
176
     1
 90
        2
176
     1
 62
     7
176
     1
 90
        3
176
     1
 90
        0
176
     1
 90
        0
176
     1
290
     0
176
     1
 90
       13
176
     1
 40
0.0
176
     1
 90
        0
176
     1
290
     0
176
     1
290
     1
176
     1
290
     1
176
     1
290
     0
176
     1
290
     0
176
     1
290
     0
176
     1
290
     0
176
     1
290
     0
176
     1
290
     0
176
     1
 90
       50
176
     1
 40
0.0
176
     1
 40
1.0
176
     1
 90
        0
176
     1
 62
    18
420
        0
176
     1
 90
       50
176
     1
 90
        3
176
     1
 62
     5
420
      255
176
     1
290
     0
176
     1
 90
       50
176
     1
 90
       50
176
     1
 90
       50
176
     1
290
     0
176
     1
 90
       50
176
     1
 62
   256
176
     0
 40
1.0
176
     0
 90
        2
176
     1
  1
strokes_ogs.tif
176
     1
290
     0
176
     1
 40
1.0
176
     1
 40
1.0
176
     1
  0
VISUALSTYLE
  5
CA
102
{ACAD_REACTORS
330
B2
102
}
330
B2
100
AcDbVisualStyle
  2
Shaded
 70
    27
177
     3
291
     0
 70
    58
 90
        2
176
     1
 90
        2
176
     1
 90
        1
176
     1
 90
        2
176
     1
 40
0.6
176
     1
 40
30.0
176
     1
 62
     7
420
 16777215
176
     1
 90
        0
176
     1
 90
        4
176
     1
 62
     7
176
     1
 62
   257
176
     1
 90
        1
176
     1
 90
        1
176
     1
 40
1.0
176
     1
 90
        8
176
     1
 62
   257
176
     1
 40
1.0
176
     1
 90
        1
176
     1
 90
        6
176
     1
 90
        2
176
     1
 62
     8
420
  7895160
176
     1
 90
        3
176
     1
 90
        0
176
     1
 90
        0
176
     1
290
     0
176
     1
 90
        5
176
     1
 40
0.0
176
     1
 90
        0
176
     1
290
     0
176
     1
290
     1
176
     1
290
     1
176
     1
290
     0
176
     1
290
     0
176
     1
290
     0
176
     1
290
     0
176
     1
290
     0
176
     1
290
     0
176
     1
 90
       50
176
     1
 40
0.0
176
     1
 40
1.0
176
     1
 90
        0
176
     1
 62
    18
420
        0
176
     1
 90
       50
176
     1
 90
        3
176
     1
 62
     5
420
      255
176
     1
290
     0
176
     1
 90
       50
176
     1
 90
       50
176
     1
 90
       50
176
     1
290
     0
176
     1
 90
       50
176
     1
 62
   256
176
     0
 40
1.0
176
     0
 90
        2
176
     1
  1
strokes_ogs.tif
176
     1
290
     0
176
     1
 40
1.0
176
     1
 40
1.0
176
     1
  0
VISUALSTYLE
  5
C9
102
{ACAD_REACTORS
330
B2
102
}
330
B2
100
AcDbVisualStyle
  2
Shaded with edges
 70
    26
177
     3
291
     0
 70
    58
 90
        2
176
     1
 90
        2
176
     1
 90
        1
176
     1
 90
        2
176
     1
 40
0.6
176
     1
 40
30.0
176
     1
 62
     7
420
 16777215
176
     1
 90
        1
176
     1
 90
       10
176
     1
 62
     7
176
     1
 62
   257
176
     1
 90
        2
176
     1
 90
        1
176
     1
 40
1.0
176
     1
 90
        8
176
     1
 62
   257
176
     1
 40
1.0
176
     1
 90
        1
176
     1
 90
        6
176
     1
 90
        2
176
     1
 62
     7
176
     1
 90
        3
176
     1
 90
        0
176
     1
 90
        0
176
     1
290
     0
176
     1
 90
        5
176
     1
 40
0.0
176
     1
 90
        0
176
     1
290
     0
176
     1
290
     1
176
     1
290
     1
176
     1
290
     0
176
     1
290
     0
176
     1
290
     0
176
     1
290
     0
176
     1
290
     0
176
     1
290
     0
176
     1
 90
       50
176
     1
 40
0.0
176
     1
 40
1.0
176
     1
 90
        0
176
     1
 62
    18
420
        0
176
     1
 90
       50
176
     1
 90
        3
176
     1
 62
     5
420
      255
176
     1
290
     0
176
     1
 90
       50
176
     1
 90
       50
176
     1
 90
       50
176
     1
290
     0
176
     1
 90
       50
176
     1
 62
   256
176
     0
 40
1.0
176
     0
 90
        2
176
     1
  1
strokes_ogs.tif
176
     1
290
     0
176
     1
 40
1.0
176
     1
 40
1.0
176
     1
  0
VISUALSTYLE
  5
C6
102
{ACAD_REACTORS
330
B2
102
}
330
B2
100
AcDbVisualStyle
  2
Shades of Gray
 70
    23
177
     3
291
     0
 70
    58
 90
        2
176
     1
 90
        2
176
     1
 90
        3
176
     1
 90
        0
176
     1
 40
0.6
176
     1
 40
30.0
176
     1
 62
     7
420
 16777215
176
     1
 90
        2
176
     1
 90
        2
176
     1
 62
     7
176
     1
 62
     7
176
     1
 90
        1
176
     1
 90
        1
176
     1
 40
40.0
176
     1
 90
        8
176
     1
 62
     7
176
     1
 40
1.0
176
     1
 90
        1
176
     1
 90
        6
176
     1
 90
        2
176
     1
 62
     7
176
     1
 90
        3
176
     1
 90
        0
176
     1
 90
        0
176
     1
290
     0
176
     1
 90
        1
176
     1
 40
0.0
176
     1
 90
        0
176
     1
290
     0
176
     1
290
     1
176
     1
290
     1
176
     1
290
     0
176
     1
290
     0
176
     1
290
     0
176
     1
290
     0
176
     1
290
     0
176
     1
290
     0
176
     1
 90
       50
176
     1
 40
0.0
176
     1
 40
1.0
176
     1
 90
        0
176
     1
 62
    18
420
        0
176
     1
 90
       50
176
     1
 90
        3
176
     1
 62
     5
420
      255
176
     1
290
     0
176
     1
 90
       50
176
     1
 90
       50
176
     1
 90
       50
176
     1
290
     0
176
     1
 90
       50
176
     1
 62
   256
176
     0
 40
1.0
176
     0
 90
        2
176
     1
  1
strokes_ogs.tif
176
     1
290
     0
176
     1
 40
1.0
176
     1
 40
1.0
176
     1
  0
VISUALSTYLE
  5
C7
102
{ACAD_REACTORS
330
B2
102
}
330
B2
100
AcDbVisualStyle
  2
Sketchy
 70
    24
177
     3
291
     0
 70
    58
 90
        1
176
     1
 90
        2
176
     1
 90
        2
176
     1
 90
        0
176
     1
 40
0.6
176
     1
 40
30.0
176
     1
 62
     7
420
 16777215
176
     1
 90
        2
176
     1
 90
        2
176
     1
 62
     7
176
     1
 62
     7
176
     1
 90
        1
176
     1
 90
        1
176
     1
 40
40.0
176
     1
 90
       11
176
     1
 62
     7
176
     1
 40
1.0
176
     1
 90
        1
176
     1
 90
        6
176
     1
 90
        2
176
     1
 62
     7
176
     1
 90
        6
176
     1
 90
        0
176
     1
 90
        0
176
     1
290
     0
176
     1
 90
        1
176
     1
 40
0.0
176
     1
 90
        0
176
     1
290
     0
176
     1
290
     1
176
     1
290
     1
176
     1
290
     0
176
     1
290
     0
176
     1
290
     0
176
     1
290
     0
176
     1
290
     0
176
     1
290
     0
176
     1
 90
       50
176
     1
 40
0.0
176
     1
 40
1.0
176
     1
 90
        0
176
     1
 62
    18
420
        0
176
     1
 90
       50
176
     1
 90
        3
176
     1
 62
     5
420
      255
176
     1
290
     0
176
     1
 90
       50
176
     1
 90
       50
176
     1
 90
       50
176
     1
290
     0
176
     1
 90
       50
176
     1
 62
   256
176
     0
 40
1.0
176
     0
 90
        2
176
     1
  1
strokes_ogs.tif
176
     1
290
     0
176
     1
 40
1.0
176
     1
 40
1.0
176
     1
  0
VISUALSTYLE
  5
BF
102
{ACAD_REACTORS
330
B2
102
}
330
B2
100
AcDbVisualStyle
  2
Thicken
 70
    13
177
     3
291
     1
 70
    58
 90
        2
176
     1
 90
        2
176
     1
 90
        0
176
     1
 90
        0
176
     1
 40
0.6
176
     1
 40
30.0
176
     1
 62
     7
420
 16777215
176
     1
 90
        1
176
     1
 90
        4
176
     1
 62
     7
176
     1
 62
   257
176
     1
 90
        1
176
     1
 90
        1
176
     1
 40
1.0
176
     1
 90
       12
176
     1
 62
     7
176
     1
 40
1.0
176
     1
 90
        1
176
     1
 90
        6
176
     1
 90
        2
176
     1
 62
     7
176
     1
 90
        5
176
     1
 90
        0
176
     1
 90
        0
176
     1
290
     0
176
     1
 90
        1
176
     1
 40
0.0
176
     1
 90
        0
176
     1
290
     0
176
     1
290
     1
176
     1
290
     1
176
     1
290
     0
176
     1
290
     0
176
     1
290
     0
176
     1
290
     0
176
     1
290
     0
176
     1
290
     0
176
     1
 90
       50
176
     1
 40
0.0
176
     1
 40
1.0
176
     1
 90
        0
176
     1
 62
    18
420
        0
176
     1
 90
       50
176
     1
 90
        3
176
     1
 62
     5
420
      255
176
     1
290
     0
176
     1
 90
       50
176
     1
 90
       50
176
     1
 90
       50
176
     1
290
     0
176
     1
 90
       50
176
     1
 62
   256
176
     0
 40
1.0
176
     0
 90
        2
176
     1
  1
strokes_ogs.tif
176
     1
290
     0
176
     1
 40
1.0
176
     1
 40
1.0
176
     1
  0
VISUALSTYLE
  5
B8
102
{ACAD_REACTORS
330
B2
102
}
330
B2
100
AcDbVisualStyle
  2
Wireframe
 70
     5
177
     3
291
     0
 70
    58
 90
        0
176
     1
 90
        2
176
     1
 90
        0
176
     1
 90
        0
176
     1
 40
0.6
176
     1
 40
30.0
176
     1
 62
     7
420
 16777215
176
     1
 90
        1
176
     1
 90
        4
176
     1
 62
     7
176
     1
 62
   257
176
     1
 90
        1
176
     1
 90
        1
176
     1
 40
1.0
176
     1
 90
        0
176
     1
 62
   257
176
     1
 40
1.0
176
     1
 90
        1
176
     1
 90
        6
176
     1
 90
        2
176
     1
 62
     7
176
     1
 90
        3
176
     1
 90
        0
176
     1
 90
        0
176
     1
290
     0
176
     1
 90
        1
176
     1
 40
0.0
176
     1
 90
        0
176
     1
290
     0
176
     1
290
     1
176
     1
290
     1
176
     1
290
     0
176
     1
290
     0
176
     1
290
     0
176
     1
290
     0
176
     1
290
     0
176
     1
290
     0
176
     1
 90
       50
176
     1
 40
0.0
176
     1
 40
1.0
176
     1
 90
        0
176
     1
 62
    18
420
        0
176
     1
 90
       50
176
     1
 90
        3
176
     1
 62
     5
420
      255
176
     1
290
     0
176
     1
 90
       50
176
     1
 90
       50
176
     1
 90
       50
176
     1
290
     0
176
     1
 90
       50
176
     1
 62
   256
176
     0
 40
1.0
176
     0
 90
        2
176
     1
  1
strokes_ogs.tif
176
     1
290
     0
176
     1
 40
1.0
176
     1
 40
1.0
176
     1
  0
VISUALSTYLE
  5
C8
102
{ACAD_REACTORS
330
B2
102
}
330
B2
100
AcDbVisualStyle
  2
X-Ray
 70
    25
177
     3
291
     0
 70
    58
 90
        2
176
     1
 90
        2
176
     1
 90
        1
176
     1
 90
        1
176
     1
 40
0.5
176
     1
 40
30.0
176
     1
 62
     7
420
 16777215
176
     1
 90
        1
176
     1
 90
        0
176
     1
 62
     7
176
     1
 62
   257
176
     1
 90
        1
176
     1
 90
        1
176
     1
 40
1.0
176
     1
 90
        8
176
     1
 62
     7
176
     1
 40
1.0
176
     1
 90
        1
176
     1
 90
        6
176
     1
 90
        2
176
     1
 62
     7
176
     1
 90
        3
176
     1
 90
        0
176
     1
 90
        0
176
     1
290
     0
176
     1
 90
       13
176
     1
 40
0.0
176
     1
 90
        0
176
     1
290
     0
176
     1
290
     1
176
     1
290
     1
176
     1
290
     0
176
     1
290
     0
176
     1
290
     0
176
     1
290
     0
176
     1
290
     0
176
     1
290
     0
176
     1
 90
       50
176
     1
 40
0.0
176
     1
 40
1.0
176
     1
 90
        0
176
     1
 62
    18
420
        0
176
     1
 90
       50
176
     1
 90
        3
176
     1
 62
     5
420
      255
176
     1
290
     0
176
     1
 90
       50
176
     1
 90
       50
176
     1
 90
       50
176
     1
290
     0
176
     1
 90
       50
176
     1
 62
   256
176
     0
 40
1.0
176
     0
 90
        2
176
     1
  1
strokes_ogs.tif
176
     1
290
     0
176
     1
 40
1.0
176
     1
 40
1.0
176
     1
  0
DICTIONARYVAR
  5
D5
102
{ACAD_REACTORS
330
D4
102
}
330
D4
100
DictionaryVariables
280
     0
  1
1:1
  0
DICTIONARYVAR
  5
D7
102
{ACAD_REACTORS
330
D4
102
}
330
D4
100
DictionaryVariables
280
     0
  1
Standard
  0
DICTIONARYVAR
  5
D6
102
{ACAD_REACTORS
330
D4
102
}
330
D4
100
DictionaryVariables
280
     0
  1
Standard
  0
DICTIONARYVAR
  5
D8
102
{ACAD_REACTORS
330
D4
102
}
330
D4
100
DictionaryVariables
280
     0
  1
0
  0
DICTIONARY
  5
DC
330
D0
100
AcDbDictionary
280
     1
281
     1
  3
ACAD_ROUNDTRIP_2008_TABLESTYLE_CELLSTYLEMAP
360
DD
  0
CELLSTYLEMAP
  5
DD
102
{ACAD_REACTORS
330
DC
102
}
330
DC
100
AcDbCellStyleMap
 90
        3
300
CELLSTYLE
  1
TABLEFORMAT_BEGIN
 90
        5
170
     1
 91
        0
 92
    32768
 62
   257
 93
        1
300
CONTENTFORMAT
  1
CONTENTFORMAT_BEGIN
 90
        0
 91
        0
 92
        4
 93
        0
300

 40
0.0
140
1.0
 94
        5
 62
     0
340
17
144
6.0
309
CONTENTFORMAT_END
171
     1
301
MARGIN
  1
CELLMARGIN_BEGIN
 40
1.5
 40
1.5
 40
1.5
 40
1.5
 40
1.5
 40
1.5
309
CELLMARGIN_END
 94
        6
 95
        1
302
GRIDFORMAT
  1
GRIDFORMAT_BEGIN
 90
        0
 91
        1
 62
     0
 92
       -2
340
11
 93
        0
 40
0.045
309
GRIDFORMAT_END
 95
        2
302
GRIDFORMAT
  1
GRIDFORMAT_BEGIN
 90
        0
 91
        1
 62
     0
 92
       -2
340
11
 93
        0
 40
0.045
309
GRIDFORMAT_END
 95
        4
302
GRIDFORMAT
  1
GRIDFORMAT_BEGIN
 90
        0
 91
        1
 62
     0
 92
       -2
340
11
 93
        0
 40
0.045
309
GRIDFORMAT_END
 95
        8
302
GRIDFORMAT
  1
GRIDFORMAT_BEGIN
 90
        0
 91
        1
 62
     0
 92
       -2
340
11
 93
        0
 40
0.045
309
GRIDFORMAT_END
 95
       16
302
GRIDFORMAT
  1
GRIDFORMAT_BEGIN
 90
        0
 91
        1
 62
     0
 92
       -2
340
11
 93
        0
 40
0.045
309
GRIDFORMAT_END
 95
       32
302
GRIDFORMAT
  1
GRIDFORMAT_BEGIN
 90
        0
 91
        1
 62
     0
 92
       -2
340
11
 93
        0
 40
0.045
309
GRIDFORMAT_END
309
TABLEFORMAT_END
  1
CELLSTYLE_BEGIN
 90
        1
 91
        1
300
_TITLE
309
CELLSTYLE_END
300
CELLSTYLE
  1
TABLEFORMAT_BEGIN
 90
        5
170
     1
 91
        0
 92
        0
 62
   257
 93
        1
300
CONTENTFORMAT
  1
CONTENTFORMAT_BEGIN
 90
        0
 91
        0
 92
        4
 93
        0
300

 40
0.0
140
1.0
 94
        5
 62
     0
340
17
144
4.5
309
CONTENTFORMAT_END
171
     1
301
MARGIN
  1
CELLMARGIN_BEGIN
 40
1.5
 40
1.5
 40
1.5
 40
1.5
 40
1.5
 40
1.5
309
CELLMARGIN_END
 94
        6
 95
        1
302
GRIDFORMAT
  1
GRIDFORMAT_BEGIN
 90
        0
 91
        1
 62
     0
 92
       -2
340
11
 93
        0
 40
0.045
309
GRIDFORMAT_END
 95
        2
302
GRIDFORMAT
  1
GRIDFORMAT_BEGIN
 90
        0
 91
        1
 62
     0
 92
       -2
340
11
 93
        0
 40
0.045
309
GRIDFORMAT_END
 95
        4
302
GRIDFORMAT
  1
GRIDFORMAT_BEGIN
 90
        0
 91
        1
 62
     0
 92
       -2
340
11
 93
        0
 40
0.045
309
GRIDFORMAT_END
 95
        8
302
GRIDFORMAT
  1
GRIDFORMAT_BEGIN
 90
        0
 91
        1
 62
     0
 92
       -2
340
11
 93
        0
 40
0.045
309
GRIDFORMAT_END
 95
       16
302
GRIDFORMAT
  1
GRIDFORMAT_BEGIN
 90
        0
 91
        1
 62
     0
 92
       -2
340
11
 93
        0
 40
0.045
309
GRIDFORMAT_END
 95
       32
302
GRIDFORMAT
  1
GRIDFORMAT_BEGIN
 90
        0
 91
        1
 62
     0
 92
       -2
340
11
 93
        0
 40
0.045
309
GRIDFORMAT_END
309
TABLEFORMAT_END
  1
CELLSTYLE_BEGIN
 90
        2
 91
        1
300
_HEADER
309
CELLSTYLE_END
300
CELLSTYLE
  1
TABLEFORMAT_BEGIN
 90
        5
170
     1
 91
        0
 92
        0
 62
   257
 93
        1
300
CONTENTFORMAT
  1
CONTENTFORMAT_BEGIN
 90
        0
 91
        0
 92
        4
 93
        0
300

 40
0.0
140
1.0
 94
        2
 62
     0
340
17
144
4.5
309
CONTENTFORMAT_END
171
     1
301
MARGIN
  1
CELLMARGIN_BEGIN
 40
1.5
 40
1.5
 40
1.5
 40
1.5
 40
1.5
 40
1.5
309
CELLMARGIN_END
 94
        6
 95
        1
302
GRIDFORMAT
  1
GRIDFORMAT_BEGIN
 90
        0
 91
        1
 62
     0
 92
       -2
340
11
 93
        0
 40
0.045
309
GRIDFORMAT_END
 95
        2
302
GRIDFORMAT
  1
GRIDFORMAT_BEGIN
 90
        0
 91
        1
 62
     0
 92
       -2
340
11
 93
        0
 40
0.045
309
GRIDFORMAT_END
 95
        4
302
GRIDFORMAT
  1
GRIDFORMAT_BEGIN
 90
        0
 91
        1
 62
     0
 92
       -2
340
11
 93
        0
 40
0.045
309
GRIDFORMAT_END
 95
        8
302
GRIDFORMAT
  1
GRIDFORMAT_BEGIN
 90
        0
 91
        1
 62
     0
 92
       -2
340
11
 93
        0
 40
0.045
309
GRIDFORMAT_END
 95
       16
302
GRIDFORMAT
  1
GRIDFORMAT_BEGIN
 90
        0
 91
        1
 62
     0
 92
       -2
340
11
 93
        0
 40
0.045
309
GRIDFORMAT_END
 95
       32
302
GRIDFORMAT
  1
GRIDFORMAT_BEGIN
 90
        0
 91
        1
 62
     0
 92
       -2
340
11
 93
        0
 40
0.045
309
GRIDFORMAT_END
309
TABLEFORMAT_END
  1
CELLSTYLE_BEGIN
 90
        3
 91
        2
300
_DATA
309
CELLSTYLE_END
  0
ENDSEC
  0
EOF
