  0
SECTION
  2
HEADER
  9
$ACADVER
  1
AC1032
  9
$ACADMAINTVER
 90
        4
  9
$DWGCODEPAGE
  3
ANSI_932
  9
$LASTSAVEDBY
  1
9128
  9
$REQUIREDVERSIONS
160
                 0
  9
$INSBASE
 10
0.0
 20
0.0
 30
0.0
  9
$EXTMIN
 10
58.81657069335076
 20
127.336933468
 30
0.0
  9
$EXTMAX
 10
186.4705552763977
 20
202.7888567413
 30
0.0
  9
$LIMMIN
 10
0.0
 20
0.0
  9
$LIMMAX
 10
210.0
 20
297.0
  9
$ORTHOMODE
 70
     0
  9
$REGENMODE
 70
     1
  9
$FILLMODE
 70
     1
  9
$QTEXTMODE
 70
     0
  9
$MIRRTEXT
 70
     1
  9
$LTSCALE
 40
1.0
  9
$ATTMODE
 70
     1
  9
$TEXTSIZE
 40
3.5
  9
$TRACEWID
 40
1.0
  9
$TEXTSTYLE
  7
STANDARD
  9
$CLAYER
  8
0
  9
$CELTYPE
  6
ByLayer
  9
$CECOLOR
 62
   256
  9
$CELTSCALE
 40
1.0
  9
$DISPSILH
 70
     0
  9
$DIMSCALE
 40
1.0
  9
$DIMASZ
 40
3.302
  9
$DIMEXO
 40
1.0
  9
$DIMDLI
 40
3.75
  9
$DIMRND
 40
0.0
  9
$DIMDLE
 40
0.0
  9
$DIMEXE
 40
1.0
  9
$DIMTP
 40
0.0
  9
$DIMTM
 40
0.0
  9
$DIMTXT
 40
3.5
  9
$DIMCEN
 40
2.5
  9
$DIMTSZ
 40
0.0
  9
$DIMTOL
 70
     0
  9
$DIMLIM
 70
     0
  9
$DIMTIH
 70
     1
  9
$DIMTOH
 70
     1
  9
$DIMSE1
 70
     0
  9
$DIMSE2
 70
     0
  9
$DIMTAD
 70
     1
  9
$DIMZIN
 70
     1
  9
$DIMBLK
  1

  9
$DIMASO
 70
     1
  9
$DIMSHO
 70
     1
  9
$DIMPOST
  1

  9
$DIMAPOST
  1

  9
$DIMALT
 70
     0
  9
$DIMALTD
 70
     3
  9
$DIMALTF
 40
0.0393700787
  9
$DIMLFAC
 40
1.0
  9
$DIMTOFL
 70
     1
  9
$DIMTVP
 40
0.0
  9
$DIMTIX
 70
     0
  9
$DIMSOXD
 70
     0
  9
$DIMSAH
 70
     0
  9
$DIMBLK1
  1

  9
$DIMBLK2
  1

  9
$DIMSTYLE
  2
ISO-25
  9
$DIMCLRD
 70
     0
  9
$DIMCLRE
 70
     0
  9
$DIMCLRT
 70
     0
  9
$DIMTFAC
 40
1.0
  9
$DIMGAP
 40
1.524
  9
$DIMJUST
 70
     0
  9
$DIMSD1
 70
     0
  9
$DIMSD2
 70
     0
  9
$DIMTOLJ
 70
     0
  9
$DIMTZIN
 70
     1
  9
$DIMALTZ
 70
     0
  9
$DIMALTTZ
 70
     0
  9
$DIMUPT
 70
     0
  9
$DIMDEC
 70
     2
  9
$DIMTDEC
 70
     2
  9
$DIMALTU
 70
     2
  9
$DIMALTTD
 70
     3
  9
$DIMTXSTY
  7
STANDARD
  9
$DIMAUNIT
 70
     0
  9
$DIMADEC
 70
     2
  9
$DIMALTRND
 40
0.0
  9
$DIMAZIN
 70
     0
  9
$DIMDSEP
 70
    44
  9
$DIMATFIT
 70
     3
  9
$DIMFRAC
 70
     0
  9
$DIMLDRBLK
  1

  9
$DIMLUNIT
 70
     2
  9
$DIMLWD
 70
    -2
  9
$DIMLWE
 70
    -2
  9
$DIMTMOVE
 70
     0
  9
$DIMFXL
 40
1.0
  9
$DIMFXLON
 70
     0
  9
$DIMJOGANG
 40
0.7853981634
  9
$DIMTFILL
 70
     0
  9
$DIMTFILLCLR
 70
     0
  9
$DIMARCSYM
 70
     0
  9
$DIMLTYPE
  6

  9
$DIMLTEX1
  6

  9
$DIMLTEX2
  6

  9
$DIMTXTDIRECTION
 70
     0
  9
$LUNITS
 70
     2
  9
$LUPREC
 70
     2
  9
$SKETCHINC
 40
1.0
  9
$FILLETRAD
 40
10.0
  9
$AUNITS
 70
     0
  9
$AUPREC
 70
     2
  9
$MENU
  1
.
  9
$ELEVATION
 40
0.0
  9
$PELEVATION
 40
0.0
  9
$THICKNESS
 40
0.0
  9
$LIMCHECK
 70
     0
  9
$CHAMFERA
 40
0.0
  9
$CHAMFERB
 40
0.0
  9
$CHAMFERC
 40
0.0
  9
$CHAMFERD
 40
0.0
  9
$SKPOLY
 70
     0
  9
$TDCREATE
 40
2458600.616211898
  9
$TDUCREATE
 40
2458600.241211898
  9
$TDUPDATE
 40
2458914.390130637
  9
$TDUUPDATE
 40
2458914.015130637
  9
$TDINDWG
 40
0.0001606944
  9
$TDUSRTIMER
 40
0.0000521181
  9
$USRTIMER
 70
     1
  9
$ANGBASE
 50
0.0
  9
$ANGDIR
 70
     0
  9
$PDMODE
 70
     0
  9
$PDSIZE
 40
-1.0
  9
$PLINEWID
 40
0.0
  9
$SPLFRAME
 70
     0
  9
$SPLINETYPE
 70
     6
  9
$SPLINESEGS
 70
     8
  9
$HANDSEED
  5
15E
  9
$SURFTAB1
 70
     6
  9
$SURFTAB2
 70
     6
  9
$SURFTYPE
 70
     6
  9
$SURFU
 70
     6
  9
$SURFV
 70
     6
  9
$UCSBASE
  2

  9
$UCSNAME
  2

  9
$UCSORG
 10
0.0
 20
0.0
 30
0.0
  9
$UCSXDIR
 10
1.0
 20
0.0
 30
0.0
  9
$UCSYDIR
 10
0.0
 20
1.0
 30
0.0
  9
$UCSORTHOREF
  2

  9
$UCSORTHOVIEW
 70
     0
  9
$UCSORGTOP
 10
0.0
 20
0.0
 30
0.0
  9
$UCSORGBOTTOM
 10
0.0
 20
0.0
 30
0.0
  9
$UCSORGLEFT
 10
0.0
 20
0.0
 30
0.0
  9
$UCSORGRIGHT
 10
0.0
 20
0.0
 30
0.0
  9
$UCSORGFRONT
 10
0.0
 20
0.0
 30
0.0
  9
$UCSORGBACK
 10
0.0
 20
0.0
 30
0.0
  9
$PUCSBASE
  2

  9
$PUCSNAME
  2

  9
$PUCSORG
 10
0.0
 20
0.0
 30
0.0
  9
$PUCSXDIR
 10
1.0
 20
0.0
 30
0.0
  9
$PUCSYDIR
 10
0.0
 20
1.0
 30
0.0
  9
$PUCSORTHOREF
  2

  9
$PUCSORTHOVIEW
 70
     0
  9
$PUCSORGTOP
 10
0.0
 20
0.0
 30
0.0
  9
$PUCSORGBOTTOM
 10
0.0
 20
0.0
 30
0.0
  9
$PUCSORGLEFT
 10
0.0
 20
0.0
 30
0.0
  9
$PUCSORGRIGHT
 10
0.0
 20
0.0
 30
0.0
  9
$PUCSORGFRONT
 10
0.0
 20
0.0
 30
0.0
  9
$PUCSORGBACK
 10
0.0
 20
0.0
 30
0.0
  9
$USERI1
 70
     0
  9
$USERI2
 70
     0
  9
$USERI3
 70
     0
  9
$USERI4
 70
     0
  9
$USERI5
 70
     0
  9
$USERR1
 40
0.0
  9
$USERR2
 40
0.0
  9
$USERR3
 40
0.0
  9
$USERR4
 40
0.0
  9
$USERR5
 40
0.0
  9
$WORLDVIEW
 70
     1
  9
$SHADEDGE
 70
     3
  9
$SHADEDIF
 70
    70
  9
$TILEMODE
 70
     1
  9
$MAXACTVP
 70
    64
  9
$PINSBASE
 10
0.0
 20
0.0
 30
0.0
  9
$PLIMCHECK
 70
     0
  9
$PEXTMIN
 10
1.000000000000000E+20
 20
1.000000000000000E+20
 30
1.000000000000000E+20
  9
$PEXTMAX
 10
-1.000000000000000E+20
 20
-1.000000000000000E+20
 30
-1.000000000000000E+20
  9
$PLIMMIN
 10
0.0
 20
0.0
  9
$PLIMMAX
 10
0.0
 20
0.0
  9
$UNITMODE
 70
     0
  9
$VISRETAIN
 70
     1
  9
$PLINEGEN
 70
     0
  9
$PSLTSCALE
 70
     1
  9
$TREEDEPTH
 70
  3020
  9
$CMLSTYLE
  2
Standard
  9
$CMLJUST
 70
     0
  9
$CMLSCALE
 40
20.0
  9
$PROXYGRAPHICS
 70
     1
  9
$MEASUREMENT
 70
     1
  9
$CELWEIGHT
370
    -1
  9
$ENDCAPS
280
     0
  9
$JOINSTYLE
280
     0
  9
$LWDISPLAY
290
     1
  9
$INSUNITS
 70
     4
  9
$HYPERLINKBASE
  1

  9
$STYLESHEET
  1

  9
$XEDIT
290
     1
  9
$CEPSNTYPE
380
     0
  9
$PSTYLEMODE
290
     1
  9
$FINGERPRINTGUID
  2
{007B57BA-BA90-417C-B78D-3D7A1B17C793}
  9
$VERSIONGUID
  2
{FAEB1C32-E019-11D5-929B-00C0DF256EC4}
  9
$EXTNAMES
290
     1
  9
$PSVPSCALE
 40
0.0
  9
$OLESTARTUP
290
     0
  9
$SORTENTS
280
   127
  9
$INDEXCTL
280
     0
  9
$HIDETEXT
280
     1
  9
$XCLIPFRAME
280
     2
  9
$HALOGAP
280
     0
  9
$OBSCOLOR
 70
   257
  9
$OBSLTYPE
280
     0
  9
$INTERSECTIONDISPLAY
280
     0
  9
$INTERSECTIONCOLOR
 70
   257
  9
$DIMASSOC
280
     2
  9
$PROJECTNAME
  1

  9
$CAMERADISPLAY
290
     0
  9
$LENSLENGTH
 40
50.0
  9
$CAMERAHEIGHT
 40
0.0
  9
$STEPSPERSEC
 40
2.0
  9
$STEPSIZE
 40
6.0
  9
$3DDWFPREC
 40
2.0
  9
$PSOLWIDTH
 40
5.0
  9
$PSOLHEIGHT
 40
80.0
  9
$LOFTANG1
 40
1.5707963268
  9
$LOFTANG2
 40
1.5707963268
  9
$LOFTMAG1
 40
0.0
  9
$LOFTMAG2
 40
0.0
  9
$LOFTPARAM
 70
     7
  9
$LOFTNORMALS
280
     1
  9
$LATITUDE
 40
37.795
  9
$LONGITUDE
 40
-122.394
  9
$NORTHDIRECTION
 40
0.0
  9
$TIMEZONE
 70
 -8000
  9
$LIGHTGLYPHDISPLAY
280
     1
  9
$TILEMODELIGHTSYNCH
280
     1
  9
$CMATERIAL
347
44
  9
$SOLIDHIST
280
     0
  9
$SHOWHIST
280
     1
  9
$DWFFRAME
280
     2
  9
$DGNFRAME
280
     2
  9
$REALWORLDSCALE
290
     1
  9
$INTERFERECOLOR
 62
   256
  9
$CSHADOW
280
     0
  9
$SHADOWPLANELOCATION
 40
0.0
  0
ENDSEC
  0
SECTION
  2
CLASSES
  0
CLASS
  1
ACDBDICTIONARYWDFLT
  2
AcDbDictionaryWithDefault
  3
ObjectDBX Classes
 90
        0
 91
        3
280
     0
281
     0
  0
CLASS
  1
VISUALSTYLE
  2
AcDbVisualStyle
  3
ObjectDBX Classes
 90
     4095
 91
        3
280
     0
281
     0
  0
CLASS
  1
MATERIAL
  2
AcDbMaterial
  3
ObjectDBX Classes
 90
     1153
 91
        3
280
     0
281
     0
  0
CLASS
  1
SCALE
  2
AcDbScale
  3
ObjectDBX Classes
 90
     1153
 91
        3
280
     0
281
     0
  0
CLASS
  1
TABLESTYLE
  2
AcDbTableStyle
  3
ObjectDBX Classes
 90
     4095
 91
        3
280
     0
281
     0
  0
CLASS
  1
MLEADERSTYLE
  2
AcDbMLeaderStyle
  3
ACDB_MLEADERSTYLE_CLASS
 90
     4095
 91
        3
280
     0
281
     0
  0
CLASS
  1
SUN
  2
AcDbSun
  3
SCENEOE
 90
     1153
 91
        3
280
     0
281
     0
  0
CLASS
  1
DICTIONARYVAR
  2
AcDbDictionaryVar
  3
ObjectDBX Classes
 90
        0
 91
        3
280
     0
281
     0
  0
CLASS
  1
CELLSTYLEMAP
  2
AcDbCellStyleMap
  3
ObjectDBX Classes
 90
     1152
 91
        3
280
     0
281
     0
  0
ENDSEC
  0
SECTION
  2
TABLES
  0
TABLE
  2
VPORT
  5
8
330
0
100
AcDbSymbolTable
 70
     1
  0
VPORT
  5
29
330
8
100
AcDbSymbolTableRecord
100
AcDbViewportTableRecord
  2
*Active
 70
     0
 10
0.0
 20
0.0
 11
1.0
 21
1.0
 12
105.0
 22
148.5
 13
0.0
 23
0.0
 14
10.0
 24
10.0
 15
10.0
 25
10.0
 16
0.0
 26
0.0
 36
1.0
 17
0.0
 27
0.0
 37
0.0
 40
297.0
 41
0.7070707071
 42
50.0
 43
0.0
 44
0.0
 50
0.0
 51
0.0
 71
     0
 72
  2000
 73
     1
 74
     3
 75
     0
 76
     0
 77
     0
 78
     0
281
     0
 65
     1
110
0.0
120
0.0
130
0.0
111
1.0
121
0.0
131
0.0
112
0.0
122
1.0
132
0.0
 79
     0
146
0.0
348
2F
 60
     3
 61
     5
292
     1
282
     1
141
0.0
142
0.0
 63
   250
361
6D
  0
ENDTAB
  0
TABLE
  2
LTYPE
  5
5
330
0
100
AcDbSymbolTable
 70
     8
  0
LTYPE
  5
14
330
5
100
AcDbSymbolTableRecord
100
AcDbLinetypeTableRecord
  2
ByBlock
 70
     0
  3

 72
    65
 73
     0
 40
0.0
  0
LTYPE
  5
15
330
5
100
AcDbSymbolTableRecord
100
AcDbLinetypeTableRecord
  2
ByLayer
 70
     0
  3

 72
    65
 73
     0
 40
0.0
  0
LTYPE
  5
16
330
5
100
AcDbSymbolTableRecord
100
AcDbLinetypeTableRecord
  2
Continuous
 70
     0
  3
Solid line
 72
    65
 73
     0
 40
0.0
  0
LTYPE
  5
6E
330
5
100
AcDbSymbolTableRecord
100
AcDbLinetypeTableRecord
  2
SLD-実線
 70
     0
  3
SolidWorks Line Style
 72
    65
 73
     0
 40
0.0
  0
LTYPE
  5
6F
330
5
100
AcDbSymbolTableRecord
100
AcDbLinetypeTableRecord
  2
SLD-破線
 70
     0
  3
SolidWorks Line Style
 72
    65
 73
     2
 40
1.905
 49
1.27
 74
     0
 49
-0.635
 74
     0
  0
LTYPE
  5
70
330
5
100
AcDbSymbolTableRecord
100
AcDbLinetypeTableRecord
  2
SLD-2点鎖線
 70
     0
  3
SolidWorks Line Style
 72
    65
 73
     6
 40
12.7
 49
6.35
 74
     0
 49
-1.27
 74
     0
 49
1.27
 74
     0
 49
-1.27
 74
     0
 49
1.27
 74
     0
 49
-1.27
 74
     0
  0
LTYPE
  5
71
330
5
100
AcDbSymbolTableRecord
100
AcDbLinetypeTableRecord
  2
SLD-鎖線
 70
     0
  3
SolidWorks Line Style
 72
    65
 73
     4
 40
10.16
 49
6.35
 74
     0
 49
-1.27
 74
     0
 49
1.27
 74
     0
 49
-1.27
 74
     0
  0
LTYPE
  5
72
330
5
100
AcDbSymbolTableRecord
100
AcDbLinetypeTableRecord
  2
SLD-1点鎖線(中心線)
 70
     0
  3
SolidWorks Line Style
 72
    65
 73
     4
 40
34.29
 49
30.48
 74
     0
 49
-1.27
 74
     0
 49
1.27
 74
     0
 49
-1.27
 74
     0
  0
LTYPE
  5
73
330
5
100
AcDbSymbolTableRecord
100
AcDbLinetypeTableRecord
  2
SLD-点線
 70
     0
  3
SolidWorks Line Style
 72
    65
 73
     2
 40
0.635
 49
0.0
 74
     0
 49
-0.635
 74
     0
  0
LTYPE
  5
74
330
5
100
AcDbSymbolTableRecord
100
AcDbLinetypeTableRecord
  2
SLD-細-太鎖線(切断面)
 70
     0
  3
SolidWorks Line Style
 72
    65
 73
     4
 40
10.16
 49
6.35
 74
     0
 49
-1.27
 74
     0
 49
1.27
 74
     0
 49
-1.27
 74
     0
  0
ENDTAB
  0
TABLE
  2
LAYER
  5
2
330
0
100
AcDbSymbolTable
 70
     1
  0
LAYER
  5
10
330
2
100
AcDbSymbolTableRecord
100
AcDbLayerTableRecord
  2
0
 70
     0
 62
     7
  6
Continuous
370
    -3
390
F
347
46
348
0
  0
ENDTAB
  0
TABLE
  2
STYLE
  5
3
330
0
100
AcDbSymbolTable
 70
     2
  0
STYLE
  5
11
330
3
100
AcDbSymbolTableRecord
100
AcDbTextStyleTableRecord
  2
STANDARD
 70
     0
 40
0.0
 41
1.0
 50
0.0
 71
     0
 42
3.5
  3
GOTHIC.TTF
  4

1001
ACAD
1000
CENTURY GOTHIC
1071
       34
  0
STYLE
  5
75
330
3
100
AcDbSymbolTableRecord
100
AcDbTextStyleTableRecord
  2
SLDTEXTSTYLE0
 70
     0
 40
0.0
 41
1.0
 50
0.0
 71
     0
 42
3.5
  3
MSGOTHIC.TTC
  4

1001
ACAD
1000
ＭＳ Ｐゴシック
1071
      306
  0
ENDTAB
  0
TABLE
  2
VIEW
  5
6
330
0
100
AcDbSymbolTable
 70
     0
  0
ENDTAB
  0
TABLE
  2
UCS
  5
7
330
0
100
AcDbSymbolTable
 70
     0
  0
ENDTAB
  0
TABLE
  2
APPID
  5
9
330
0
100
AcDbSymbolTable
 70
     1
  0
APPID
  5
12
330
9
100
AcDbSymbolTableRecord
100
AcDbRegAppTableRecord
  2
ACAD
 70
     0
  0
ENDTAB
  0
TABLE
  2
DIMSTYLE
  5
A
330
0
100
AcDbSymbolTable
 70
     1
100
AcDbDimStyleTable
  0
DIMSTYLE
105
27
330
A
100
AcDbSymbolTableRecord
100
AcDbDimStyleTableRecord
  2
ISO-25
 70
     0
 41
2.5
 42
0.625
 43
3.75
 44
1.25
 73
     0
 74
     0
 77
     1
 78
     8
140
2.5
141
2.5
143
0.0393700787
147
0.625
171
     3
172
     1
178
     0
271
     2
272
     2
274
     3
278
    44
283
     0
284
     8
340
11
  0
ENDTAB
  0
TABLE
  2
BLOCK_RECORD
  5
1
330
0
100
AcDbSymbolTable
 70
     1
  0
BLOCK_RECORD
  5
1F
330
1
100
AcDbSymbolTableRecord
100
AcDbBlockTableRecord
  2
*Model_Space
340
22
 70
     0
280
     1
281
     0
  0
BLOCK_RECORD
  5
1B
330
1
100
AcDbSymbolTableRecord
100
AcDbBlockTableRecord
  2
*Paper_Space
340
1E
 70
     0
280
     1
281
     0
  0
BLOCK_RECORD
  5
23
330
1
100
AcDbSymbolTableRecord
100
AcDbBlockTableRecord
  2
*Paper_Space0
340
26
 70
     0
280
     1
281
     0
  0
ENDTAB
  0
ENDSEC
  0
SECTION
  2
BLOCKS
  0
BLOCK
  5
20
330
1F
100
AcDbEntity
  8
0
100
AcDbBlockBegin
  2
*Model_Space
 70
     0
 10
0.0
 20
0.0
 30
0.0
  3
*Model_Space
  1

  0
ENDBLK
  5
21
330
1F
100
AcDbEntity
  8
0
100
AcDbBlockEnd
  0
BLOCK
  5
1C
330
1B
100
AcDbEntity
 67
     1
  8
0
100
AcDbBlockBegin
  2
*Paper_Space
 70
     0
 10
0.0
 20
0.0
 30
0.0
  3
*Paper_Space
  1

  0
ENDBLK
  5
1D
330
1B
100
AcDbEntity
 67
     1
  8
0
100
AcDbBlockEnd
  0
BLOCK
  5
24
330
23
100
AcDbEntity
  8
0
100
AcDbBlockBegin
  2
*Paper_Space0
 70
     0
 10
0.0
 20
0.0
 30
0.0
  3
*Paper_Space0
  1

  0
ENDBLK
  5
25
330
23
100
AcDbEntity
  8
0
100
AcDbBlockEnd
  0
ENDSEC
  0
SECTION
  2
ENTITIES
  0
MTEXT
  5
76
330
1F
100
AcDbEntity
  8
0
  6
Continuous
 62
     7
370
     0
100
AcDbMText
 10
151.9055934157
 20
130.836933468
 30
0.0
 40
3.5
 41
0.0
 46
3.5
 71
     1
 72
     1
  1
{GHCE-006-KTC}
  7
SLDTEXTSTYLE0
 73
     1
 44
1.0
  0
SPLINE
  5
77
330
1F
100
AcDbEntity
  8
0
  6
SLD-実線
 62
     7
370
    25
100
AcDbSpline
210
0.0
220
0.0
230
1.0
 70
     8
 71
     3
 72
    24
 73
    20
 74
     0
 42
0.000000001
 43
0.00000001
 40
0.0
 40
0.0
 40
0.0
 40
0.0
 40
0.0792025533230127
 40
0.110440098720051
 40
0.162316484811406
 40
0.2158792976746208
 40
0.2732075999472677
 40
0.3329809244819144
 40
0.3947295809078084
 40
0.4580221928693069
 40
0.5223299005190369
 40
0.5870451993410013
 40
0.6516114896920656
 40
0.7156426168782211
 40
0.7790325705611387
 40
0.8419317077018406
 40
0.904657756926868
 40
0.9676219809272562
 40
1.0
 40
1.0
 40
1.0
 40
1.0
 10
128.1130341538533
 20
171.7406699844853
 30
0.0
 10
127.9091962170486
 20
171.736172351988
 30
0.0
 10
127.6249644477546
 20
171.7299008499194
 30
0.0
 10
127.2115051041037
 20
171.6884629989109
 30
0.0
 10
126.8666937189548
 20
171.6398174137372
 30
0.0
 10
126.4636706517825
 20
171.5590976794386
 30
0.0
 10
126.0518990709716
 20
171.4500867289591
 30
0.0
 10
125.6350988502094
 20
171.3087988241888
 30
0.0
 10
125.2229953756408
 20
171.1338524680427
 30
0.0
 10
124.8232592212507
 20
170.9238600763543
 30
0.0
 10
124.4436367660713
 20
170.6782210308152
 30
0.0
 10
124.091853204024
 20
170.3973809925152
 30
0.0
 10
123.7751983031036
 20
170.0829073300485
 30
0.0
 10
123.4999612171016
 20
169.7372806525543
 30
0.0
 10
123.271796303684
 20
169.3636424033387
 30
0.0
 10
123.0941081800204
 20
168.9656150759837
 30
0.0
 10
122.9750192306746
 20
168.5473488732738
 30
0.0
 10
122.9148384153936
 20
168.1853449122275
 30
0.0
 10
122.9194085763274
 20
167.9651730368403
 30
0.0
 10
122.9209605930737
 20
167.8904031452288
 30
0.0
  0
SPLINE
  5
78
330
1F
100
AcDbEntity
  8
0
  6
SLD-実線
 62
     7
370
    25
100
AcDbSpline
210
0.0
220
0.0
230
1.0
 70
     8
 71
     3
 72
    23
 73
    19
 74
     0
 42
0.000000001
 43
0.00000001
 40
0.0
 40
0.0
 40
0.0
 40
0.0
 40
0.032274809736644
 40
0.0972334773318103
 40
0.1639693244635256
 40
0.2333070008401602
 40
0.2977817113719708
 40
0.3641748393421453
 40
0.4325286891102271
 40
0.5024098861161141
 40
0.5728882637972442
 40
0.6427982919657838
 40
0.7108705513235283
 40
0.7759552565393981
 40
0.8405155969976374
 40
0.8868437285441084
 40
0.9310936799946525
 40
1.0
 40
1.0
 40
1.0
 40
1.0
 10
133.3051063975438
 20
167.8895606299577
 30
0.0
 10
133.3066744594497
 20
167.9640962639116
 30
0.0
 10
133.3113985186472
 20
168.1886478238931
 30
0.0
 10
133.2482161327254
 20
168.5641854640757
 30
0.0
 10
133.1175589390792
 20
169.0090933795463
 30
0.0
 10
132.9208403989352
 20
169.4278953119378
 30
0.0
 10
132.6708686981871
 20
169.8146461356584
 30
0.0
 10
132.3754426922604
 20
170.1656439024752
 30
0.0
 10
132.029648659169
 20
170.488735083579
 30
0.0
 10
131.6385551215124
 20
170.779071573743
 30
0.0
 10
131.2103466466645
 20
171.0321778370424
 30
0.0
 10
130.7561722855683
 20
171.2448366808185
 30
0.0
 10
130.2891769840103
 20
171.4157885817275
 30
0.0
 10
129.8150879114907
 20
171.5482630894201
 30
0.0
 10
129.3795786886766
 20
171.6367933020458
 30
0.0
 10
128.9882757905085
 20
171.6919928121603
 30
0.0
 10
128.5815198419175
 20
171.7314146502521
 30
0.0
 10
128.2903447396281
 20
171.7371670626752
 30
0.0
 10
128.1130341538533
 20
171.7406699844853
 30
0.0
  0
LINE
  5
79
330
1F
100
AcDbEntity
  8
0
  6
SLD-実線
 62
     7
370
    25
100
AcDbLine
 10
122.913034516
 20
167.8933490029
 30
0.0
 11
122.913034516
 21
166.2602671114
 31
0.0
  0
LINE
  5
7A
330
1F
100
AcDbEntity
  8
0
  6
SLD-実線
 62
     7
370
    25
100
AcDbLine
 10
133.3130364259
 20
166.260266161
 30
0.0
 11
133.3130364259
 21
167.8933480524
 31
0.0
  0
LINE
  5
7B
330
1F
100
AcDbEntity
  8
0
  6
SLD-実線
 62
     7
370
    25
100
AcDbLine
 10
125.1130358002
 20
163.8083227712
 30
0.0
 11
125.1130358002
 21
161.9480875723
 31
0.0
  0
LINE
  5
7C
330
1F
100
AcDbEntity
  8
0
  6
SLD-実線
 62
     7
370
    25
100
AcDbLine
 10
131.1130351417
 20
161.9480877624
 30
0.0
 11
131.1130351417
 21
163.8083229613
 31
0.0
  0
ARC
  5
7D
330
1F
100
AcDbEntity
  8
0
  6
SLD-実線
 62
     7
370
    25
100
AcDbCircle
 10
142.3965922296
 20
163.8744320711
 30
0.0
 40
0.3999999998348955
100
AcDbArc
 50
0.0016460196
 51
59.9999999454
  0
LINE
  5
7E
330
1F
100
AcDbEntity
  8
0
  6
SLD-実線
 62
     7
370
    25
100
AcDbLine
 10
142.7965918287
 20
162.472303065
 30
0.0
 11
142.7965918287
 21
163.8744323764
 31
0.0
  0
LINE
  5
7F
330
1F
100
AcDbEntity
  8
0
  6
SLD-実線
 62
     7
370
    25
100
AcDbLine
 10
142.596575398
 20
164.2208527477
 30
0.0
 11
132.4246152682
 21
170.0930003385
 31
0.0
  0
LINE
  5
80
330
1F
100
AcDbEntity
  8
0
  6
SLD-実線
 62
     7
370
    25
100
AcDbLine
 10
130.0078609739
 20
171.4881628957
 30
0.0
 11
81.5129292144
 21
199.4836910989
 31
0.0
  0
LINE
  5
81
330
1F
100
AcDbEntity
  8
0
  6
SLD-実線
 62
     7
370
    25
100
AcDbLine
 10
79.0961736031
 20
200.8788544164
 30
0.0
 11
76.6942247064
 21
202.2654699995
 31
0.0
  0
LINE
  5
82
330
1F
100
AcDbEntity
  8
0
  6
SLD-実線
 62
     7
370
    25
100
AcDbLine
 10
125.2845756139
 20
132.9555977696
 30
0.0
 11
128.8201094408
 21
134.9966180036
 31
0.0
  0
LINE
  5
83
330
1F
100
AcDbEntity
  8
0
  6
SLD-実線
 62
     7
370
    25
100
AcDbLine
 10
146.3320933869
 20
164.5133426908
 30
0.0
 11
80.0297743713
 21
202.7888567413
 31
0.0
  0
ARC
  5
84
330
1F
100
AcDbEntity
  8
0
  6
SLD-実線
 62
     7
370
    25
100
AcDbCircle
 10
128.8201420309
 20
133.8270041143
 30
0.0
 40
0.3999999998349222
100
AcDbArc
 50
239.9999999454
 51
299.9986559533
  0
LINE
  5
85
330
1F
100
AcDbEntity
  8
0
  6
SLD-実線
 62
     7
370
    25
100
AcDbLine
 10
129.0201252129
 20
133.4805845224
 30
0.0
 11
142.5965760566
 21
141.3181027682
 31
0.0
  0
LINE
  5
86
330
1F
100
AcDbEntity
  8
0
  6
SLD-実線
 62
     7
370
    25
100
AcDbLine
 10
127.4070685144
 20
134.1808862951
 30
0.0
 11
128.6201575475
 21
133.4805849026
 31
0.0
  0
LINE
  5
87
330
1F
100
AcDbEntity
  8
0
  6
SLD-実線
 62
     7
370
    25
100
AcDbLine
 10
142.7965918287
 20
143.0650695443
 30
0.0
 11
146.3320933869
 21
145.1060711499
 31
0.0
  0
LINE
  5
88
330
1F
100
AcDbEntity
  8
0
  6
SLD-実線
 62
     7
370
    25
100
AcDbLine
 10
142.7965918287
 20
141.6645225453
 30
0.0
 11
142.7965918287
 21
143.0650701176
 31
0.0
  0
ARC
  5
89
330
1F
100
AcDbEntity
  8
0
  6
SLD-実線
 62
     7
370
    25
100
AcDbCircle
 10
142.3965922296
 20
141.6645219878
 30
0.0
 40
0.4000000000000057
100
AcDbArc
 50
299.9973117337
 51
0.0
  0
SPLINE
  5
8A
330
1F
100
AcDbEntity
  8
0
  6
SLD-実線
 62
     7
370
    25
100
AcDbSpline
210
0.0
220
0.0
230
1.0
 70
     8
 71
     3
 72
    23
 73
    19
 74
     0
 42
0.000000001
 43
0.00000001
 40
0.0
 40
0.0
 40
0.0
 40
0.0
 40
0.0313322454757196
 40
0.0963545293382705
 40
0.1631553810555508
 40
0.2325605963503324
 40
0.2970981089895213
 40
0.3635559077169208
 40
0.4319763380989742
 40
0.5019256034436237
 40
0.5724726311521283
 40
0.6424507557426546
 40
0.7105888654603029
 40
0.7757374077755103
 40
0.8403606337496425
 40
0.8867338915831183
 40
0.9310265612426283
 40
1.0
 40
1.0
 40
1.0
 40
1.0
 10
82.39342166083763
 20
197.286986191153
 30
0.0
 10
82.39491353411455
 20
197.3592736129133
 30
0.0
 10
82.39950141938247
 20
197.581575602287
 30
0.0
 10
82.33646898672822
 20
197.9548739899465
 30
0.0
 10
82.2058868823523
 20
198.3997865101391
 30
0.0
 10
82.00914753920904
 20
198.8185873800199
 30
0.0
 10
81.75918112811189
 20
199.2053384735617
 30
0.0
 10
81.46375369252897
 20
199.556336168779
 30
0.0
 10
81.11796005306643
 20
199.8794273644323
 30
0.0
 10
80.7268664294821
 20
200.1697638715784
 30
0.0
 10
80.29865789109897
 20
200.4228700510867
 30
0.0
 10
79.84448485871599
 20
200.6355287434528
 30
0.0
 10
79.37748844337358
 20
200.8064796287882
 30
0.0
 10
78.90340055056464
 20
200.9389554395188
 30
0.0
 10
78.46788991671524
 20
201.0274853606212
 30
0.0
 10
78.07658818655092
 20
201.0826854197877
 30
0.0
 10
77.66983263662202
 20
201.1221047633049
 30
0.0
 10
77.37865862344611
 20
201.1278575706999
 30
0.0
 10
77.20134810005806
 20
201.1313607448982
 30
0.0
  0
SPLINE
  5
8B
330
1F
100
AcDbEntity
  8
0
  6
SLD-実線
 62
     7
370
    25
100
AcDbSpline
210
0.0
220
0.0
230
1.0
 70
     8
 71
     3
 72
    24
 73
    20
 74
     0
 42
0.000000001
 43
0.00000001
 40
0.0
 40
0.0
 40
0.0
 40
0.0
 40
0.0792799832969785
 40
0.1105476489220861
 40
0.1624748075856811
 40
0.2160897671139261
 40
0.2734738819851943
 40
0.3333053994967524
 40
0.395114172005626
 40
0.4584683131511404
 40
0.5228386282762889
 40
0.587616941246095
 40
0.652246090818608
 40
0.7163395562122324
 40
0.7797912238811094
 40
0.8427515971679328
 40
0.9055387140274395
 40
0.9685642375399766
 40
1.0
 40
1.0
 40
1.0
 40
1.0
 10
77.20134810005806
 20
201.1313607448982
 30
0.0
 10
76.99750907682952
 20
201.126864592281
 30
0.0
 10
76.71327686789878
 20
201.120595177476
 30
0.0
 10
76.29981798653755
 20
201.07915223191
 30
0.0
 10
75.95500537405339
 20
201.0305108693443
 30
0.0
 10
75.55198206704364
 20
200.9497896468342
 30
0.0
 10
75.14021031269142
 20
200.8407791374592
 30
0.0
 10
74.72341034225609
 20
200.6994909233028
 30
0.0
 10
74.31130621269608
 20
200.524545455033
 30
0.0
 10
73.91157350587558
 20
200.3145501946703
 30
0.0
 10
73.53195144461198
 20
200.0689113921342
 30
0.0
 10
73.1801635667995
 20
199.7880738148893
 30
0.0
 10
72.86351014118353
 20
199.4735994598211
 30
0.0
 10
72.58827139647444
 20
199.1279730176396
 30
0.0
 10
72.36011157099963
 20
198.7543345002347
 30
0.0
 10
72.1824049261268
 20
198.3563080048485
 30
0.0
 10
72.0633848241743
 20
197.9380387486012
 30
0.0
 10
72.00335976943677
 20
197.5782722515753
 30
0.0
 10
72.00779864378973
 20
197.3603507743128
 30
0.0
 10
72.00927585636751
 20
197.2878287064241
 30
0.0
  0
LINE
  5
8C
330
1F
100
AcDbEntity
  8
0
  6
SLD-実線
 62
     7
370
    25
100
AcDbLine
 10
82.4013477379
 20
195.6509584421
 30
0.0
 11
82.4013477379
 21
197.2840403335
 31
0.0
  0
LINE
  5
8D
330
1F
100
AcDbEntity
  8
0
  6
SLD-実線
 62
     7
370
    25
100
AcDbLine
 10
72.001345828
 20
197.2840412839
 30
0.0
 11
72.001345828
 21
195.6509593925
 31
0.0
  0
LINE
  5
8E
330
1F
100
AcDbEntity
  8
0
  6
SLD-実線
 62
     7
370
    25
100
AcDbLine
 10
80.2013464537
 20
191.3387800435
 30
0.0
 11
80.2013464537
 21
193.1990152424
 31
0.0
  0
LINE
  5
8F
330
1F
100
AcDbEntity
  8
0
  6
SLD-実線
 62
     7
370
    25
100
AcDbLine
 10
74.2013471122
 20
193.1990150523
 30
0.0
 11
74.2013471122
 21
191.3387798534
 31
0.0
  0
LINE
  5
90
330
1F
100
AcDbEntity
  8
0
  6
SLD-実線
 62
     7
370
    25
100
AcDbLine
 10
62.5177904252
 20
192.679403595
 30
0.0
 11
58.982288867
 21
190.6384019894
 31
0.0
  0
SPLINE
  5
91
330
1F
100
AcDbEntity
  8
0
  6
SLD-実線
 62
     7
370
    25
100
AcDbSpline
210
0.0
220
0.0
230
1.0
 70
     8
 71
     3
 72
    12
 73
     8
 74
     0
 42
0.000000001
 43
0.00000001
 40
0.0
 40
0.0
 40
0.0
 40
0.0
 40
0.0113796893724569
 40
0.3697673684603044
 40
0.5436110373980144
 40
0.8244762012006043
 40
1.0
 40
1.0
 40
1.0
 40
1.0
 10
62.71037847382749
 20
194.4228505360846
 30
0.0
 10
62.70903788049059
 20
194.4221696082805
 30
0.0
 10
62.66547714221954
 20
194.4000437950006
 30
0.0
 10
62.61275654379484
 20
194.3466997089039
 30
0.0
 10
62.55447632166743
 20
194.2566694328652
 30
0.0
 10
62.52473408605369
 20
194.1771243194945
 30
0.0
 10
62.52098429522887
 20
194.1167240495342
 30
0.0
 10
62.51954215358172
 20
194.0934945551759
 30
0.0
  0
LINE
  5
92
330
1F
100
AcDbEntity
  8
0
  6
SLD-実線
 62
     7
370
    25
100
AcDbLine
 10
62.5177904252
 20
194.0815313825
 30
0.0
 11
62.5177904252
 21
192.6794020711
 31
0.0
  0
LINE
  5
93
330
1F
100
AcDbEntity
  8
0
  6
SLD-実線
 62
     7
370
    25
100
AcDbLine
 10
76.294257041
 20
202.2654703797
 30
0.0
 11
62.7178061973
 21
194.4279521339
 31
0.0
  0
SPLINE
  5
94
330
1F
100
AcDbEntity
  8
0
  6
SLD-実線
 62
     7
370
    25
100
AcDbSpline
210
0.0
220
0.0
230
1.0
 70
     8
 71
     3
 72
     9
 73
     5
 74
     0
 42
0.000000001
 43
0.00000001
 40
0.0
 40
0.0
 40
0.0
 40
0.0
 40
0.7627155652346608
 40
1.0
 40
1.0
 40
1.0
 40
1.0
 10
76.49423988587868
 20
202.3190504530273
 30
0.0
 10
76.44042905144933
 20
202.3139085570454
 30
0.0
 10
76.36987741086126
 20
202.3071669928027
 30
0.0
 10
76.30917934001131
 20
202.2727112521175
 30
0.0
 10
76.29477663257833
 20
202.2645354411646
 30
0.0
  0
SPLINE
  5
95
330
1F
100
AcDbEntity
  8
0
  6
SLD-実線
 62
     7
370
    25
100
AcDbSpline
210
0.0
220
0.0
230
1.0
 70
     8
 71
     3
 72
     9
 73
     5
 74
     0
 42
0.000000001
 43
0.00000001
 40
0.0
 40
0.0
 40
0.0
 40
0.0
 40
0.3286421957465059
 40
1.0
 40
1.0
 40
1.0
 40
1.0
 10
76.6930070576341
 20
202.2635244605614
 30
0.0
 10
76.673014016949
 20
202.2749240876581
 30
0.0
 10
76.61217873485843
 20
202.3096111340701
 30
0.0
 10
76.54161404267845
 20
202.3152588289761
 30
0.0
 10
76.49423988587868
 20
202.3190504530273
 30
0.0
  0
LINE
  5
96
330
1F
100
AcDbEntity
  8
0
  6
SLD-実線
 62
     7
370
    25
100
AcDbLine
 10
80.0297743713
 20
202.7888567413
 30
0.0
 11
77.9086841706
 21
201.5643774322
 31
0.0
  0
LINE
  5
97
330
1F
100
AcDbEntity
  8
0
  6
SLD-実線
 62
     7
370
    25
100
AcDbLine
 10
142.9622763586
 20
160.1183449386
 30
0.0
 11
146.4978101855
 21
162.1593651726
 31
0.0
  0
LINE
  5
98
330
1F
100
AcDbEntity
  8
0
  6
SLD-実線
 62
     7
370
    25
100
AcDbLine
 10
142.9622763586
 20
147.8686512713
 30
0.0
 11
142.9622763586
 21
160.1183449386
 31
0.0
  0
LINE
  5
99
330
1F
100
AcDbEntity
  8
0
  6
SLD-実線
 62
     7
370
    25
100
AcDbLine
 10
144.8007541593
 20
148.9299819146
 30
0.0
 11
142.9622763586
 21
147.8686512713
 31
0.0
  0
LINE
  5
9A
330
1F
100
AcDbEntity
  8
0
  6
SLD-実線
 62
     7
370
    25
100
AcDbLine
 10
144.8007541593
 20
146.6436677229
 30
0.0
 11
144.8007541593
 21
148.9299819146
 31
0.0
  0
LINE
  5
9B
330
1F
100
AcDbEntity
  8
0
  6
SLD-実線
 62
     7
370
    25
100
AcDbLine
 10
146.4978101855
 20
147.6233573135
 30
0.0
 11
144.8007541593
 21
146.6436677229
 31
0.0
  0
LINE
  5
9C
330
1F
100
AcDbEntity
  8
0
  6
SLD-実線
 62
     7
370
    25
100
AcDbLine
 10
146.4978101855
 20
147.6233573135
 30
0.0
 11
146.4978101855
 21
145.3370429316
 31
0.0
  0
LINE
  5
9D
330
1F
100
AcDbEntity
  8
0
  6
SLD-実線
 62
     7
370
    25
100
AcDbLine
 10
142.6794341266
 20
143.1327413527
 30
0.0
 11
146.4978101855
 21
145.3370429316
 31
0.0
  0
LINE
  5
9E
330
1F
100
AcDbEntity
  8
0
  6
SLD-実線
 62
     7
370
    25
100
AcDbLine
 10
142.6794341266
 20
141.5012412003
 30
0.0
 11
142.6794341266
 21
143.1327413527
 31
0.0
  0
LINE
  5
9F
330
1F
100
AcDbEntity
  8
0
  6
SLD-実線
 62
     7
370
    25
100
AcDbLine
 10
142.6794341266
 20
141.5012412003
 30
0.0
 11
129.1029832829
 21
133.6637229545
 31
0.0
  0
LINE
  5
A0
330
1F
100
AcDbEntity
  8
0
  6
SLD-実線
 62
     7
370
    25
100
AcDbLine
 10
129.1029832829
 20
135.2952231069
 30
0.0
 11
129.1029832829
 21
133.6637229545
 31
0.0
  0
LINE
  5
A1
330
1F
100
AcDbEntity
  8
0
  6
SLD-実線
 62
     7
370
    25
100
AcDbLine
 10
125.567449456
 20
133.254202873
 30
0.0
 11
129.1029832829
 21
135.2952231069
 31
0.0
  0
LINE
  5
A2
330
1F
100
AcDbEntity
  8
0
  6
SLD-実線
 62
     7
370
    25
100
AcDbLine
 10
125.567449456
 20
135.5405172549
 30
0.0
 11
125.567449456
 21
133.254202873
 31
0.0
  0
LINE
  5
A3
330
1F
100
AcDbEntity
  8
0
  6
SLD-実線
 62
     7
370
    25
100
AcDbLine
 10
126.9816632502
 20
136.3569255005
 30
0.0
 11
125.567449456
 21
135.5405172549
 31
0.0
  0
LINE
  5
A4
330
1F
100
AcDbEntity
  8
0
  6
SLD-実線
 62
     7
370
    25
100
AcDbLine
 10
126.9816632502
 20
138.6432396923
 30
0.0
 11
126.9816632502
 21
136.3569255005
 31
0.0
  0
LINE
  5
A5
330
1F
100
AcDbEntity
  8
0
  6
SLD-実線
 62
     7
370
    25
100
AcDbLine
 10
128.8201410509
 20
139.7045703356
 30
0.0
 11
126.9816632502
 21
138.6432396923
 31
0.0
  0
LINE
  5
A6
330
1F
100
AcDbEntity
  8
0
  6
SLD-実線
 62
     7
370
    25
100
AcDbLine
 10
128.8201410509
 20
151.9542640029
 30
0.0
 11
128.8201410509
 21
139.7045703356
 31
0.0
  0
LINE
  5
A7
330
1F
100
AcDbEntity
  8
0
  6
SLD-実線
 62
     7
370
    25
100
AcDbLine
 10
125.284607224
 20
149.913243769
 30
0.0
 11
128.8201410509
 21
151.9542640029
 31
0.0
  0
LINE
  5
A8
330
1F
100
AcDbEntity
  8
0
  6
SLD-実線
 62
     7
370
    25
100
AcDbLine
 10
125.284607224
 20
149.913243769
 30
0.0
 11
125.284607224
 21
152.0362493153
 31
0.0
  0
LINE
  5
A9
330
1F
100
AcDbEntity
  8
0
  6
SLD-実線
 62
     7
370
    25
100
AcDbLine
 10
129.1029832829
 20
154.2405508942
 30
0.0
 11
125.284607224
 21
152.0362493153
 31
0.0
  0
LINE
  5
AA
330
1F
100
AcDbEntity
  8
0
  6
SLD-実線
 62
     7
370
    25
100
AcDbLine
 10
129.1029832829
 20
155.8736327857
 30
0.0
 11
129.1029832829
 21
154.2405508942
 31
0.0
  0
LINE
  5
AB
330
1F
100
AcDbEntity
  8
0
  6
SLD-実線
 62
     7
370
    25
100
AcDbLine
 10
142.6794341266
 20
163.7111510314
 30
0.0
 11
129.1029832829
 21
155.8736327857
 31
0.0
  0
LINE
  5
AC
330
1F
100
AcDbEntity
  8
0
  6
SLD-実線
 62
     7
370
    25
100
AcDbLine
 10
142.6794341266
 20
162.07806914
 30
0.0
 11
142.6794341266
 21
163.7111510314
 31
0.0
  0
LINE
  5
AD
330
1F
100
AcDbEntity
  8
0
  6
SLD-実線
 62
     7
370
    25
100
AcDbLine
 10
146.4978101855
 20
164.2823707189
 30
0.0
 11
142.6794341266
 21
162.07806914
 31
0.0
  0
LINE
  5
AE
330
1F
100
AcDbEntity
  8
0
  6
SLD-実線
 62
     7
370
    25
100
AcDbLine
 10
146.4978101855
 20
164.2823707189
 30
0.0
 11
146.4978101855
 21
162.1593651726
 31
0.0
  0
LINE
  5
AF
330
1F
100
AcDbEntity
  8
0
  6
SLD-実線
 62
     7
370
    25
100
AcDbLine
 10
125.284607224
 20
152.6894292961
 30
0.0
 11
59.3822565324
 21
190.7340465479
 31
0.0
  0
LWPOLYLINE
  5
B0
330
1F
100
AcDbEntity
  8
0
  6
SLD-実線
 62
     7
370
    25
100
AcDbPolyline
 90
       10
 70
   128
 43
0.0
 10
125.284607224
 20
152.0362493153
 10
125.2846078826
 20
152.0979269924
 10
125.2846078826
 20
152.1676529612
 10
125.2846078826
 20
152.2433090249
 10
125.2846091997
 20
152.3225949023
 10
125.2846078826
 20
152.4031038893
 10
125.284607224
 20
152.4823893955
 10
125.284607224
 20
152.5580409838
 10
125.2846091997
 20
152.6277585091
 10
125.284607224
 20
152.6894292961
  0
LINE
  5
B1
330
1F
100
AcDbEntity
  8
0
  6
SLD-実線
 62
     7
370
    25
100
AcDbLine
 10
125.284607224
 20
152.0362493153
 30
0.0
 11
58.8165720684
 21
190.4074292571
 31
0.0
  0
ELLIPSE
  5
B2
330
1F
100
AcDbEntity
  8
0
  6
SLD-実線
 62
     7
370
    25
100
AcDbEllipse
 10
59.3822561183
 20
190.4074303052
 30
0.0
 11
0.5656854249492369
 21
0.0
 31
0.0
210
0.0
220
0.0
230
1.0
 40
0.5773815452
 41
1.570796326794897
 42
3.141592653589793
  0
LINE
  5
B3
330
1F
100
AcDbEntity
  8
0
  6
SLD-実線
 62
     7
370
    25
100
AcDbLine
 10
128.5372988189
 20
154.5671681851
 30
0.0
 11
125.284607224
 21
152.6894292961
 31
0.0
  0
ELLIPSE
  5
B4
330
1F
100
AcDbEntity
  8
0
  6
SLD-実線
 62
     7
370
    25
100
AcDbEllipse
 10
128.8201420309
 20
154.4038325739
 30
0.0
 11
0.3999999988824356
 21
-0.2309526189597761
 31
0.0
210
0.0
220
0.0
230
1.0
 40
0.0000703729
 41
0.7854387943163381
 42
2.356235122926464
  0
LINE
  5
B5
330
1F
100
AcDbEntity
  8
0
  6
SLD-実線
 62
     7
370
    25
100
AcDbLine
 10
93.6062245564
 20
168.2007848217
 30
0.0
 11
125.284607224
 21
149.913243769
 31
0.0
  0
LINE
  5
B6
330
1F
100
AcDbEntity
  8
0
  6
SLD-実線
 62
     7
370
    25
100
AcDbLine
 10
93.6062245564
 20
162.4849997226
 30
0.0
 11
93.6062245564
 21
168.2007848217
 31
0.0
  0
LINE
  5
B7
330
1F
100
AcDbEntity
  8
0
  6
SLD-実線
 62
     7
370
    25
100
AcDbLine
 10
90.4949547361
 20
164.2810975588
 30
0.0
 11
93.6062245564
 21
162.4849997226
 31
0.0
  0
LINE
  5
B8
330
1F
100
AcDbEntity
  8
0
  6
SLD-実線
 62
     7
370
    25
100
AcDbLine
 10
90.4949547361
 20
169.996882658
 30
0.0
 11
90.4949547361
 21
164.2810975588
 31
0.0
  0
LINE
  5
B9
330
1F
100
AcDbEntity
  8
0
  6
SLD-実線
 62
     7
370
    25
100
AcDbLine
 10
58.8165720684
 20
188.2844237108
 30
0.0
 11
90.4949547361
 21
169.996882658
 31
0.0
  0
LINE
  5
BA
330
1F
100
AcDbEntity
  8
0
  6
SLD-実線
 62
     7
370
    25
100
AcDbLine
 10
58.8165720684
 20
190.4074292571
 30
0.0
 11
58.8165720684
 21
188.2844237108
 31
0.0
  0
LINE
  5
BB
330
1F
100
AcDbEntity
  8
0
  6
SLD-実線
 62
     7
370
    25
100
AcDbLine
 10
62.6349481273
 20
192.6117854369
 30
0.0
 11
128.5372988189
 21
154.5671681851
 31
0.0
  0
LINE
  5
BC
330
1F
100
AcDbEntity
  8
0
  6
SLD-実線
 62
     7
370
    25
100
AcDbLine
 10
59.3822565324
 20
190.7340465479
 30
0.0
 11
62.6349481273
 21
192.6117854369
 31
0.0
  0
ARC
  5
BD
330
1F
100
AcDbEntity
  8
0
  6
SLD-実線
 62
     7
370
    25
100
AcDbCircle
 10
128.8316704606
 20
156.3830193843
 30
0.0
 40
0.5771354731953439
100
AcDbArc
 50
268.8553286177
 51
298.0409495104
  0
ARC
  5
BE
330
1F
100
AcDbEntity
  8
0
  6
SLD-実線
 62
     7
370
    25
100
AcDbCircle
 10
128.8086144016
 20
156.3830309281
 30
0.0
 40
0.5771469595470256
100
AcDbArc
 50
241.959347362
 51
271.1443745099
  0
ARC
  5
BF
330
1F
100
AcDbEntity
  8
0
  6
SLD-実線
 62
     7
370
    25
100
AcDbCircle
 10
129.1513859645
 20
155.8456890906
 30
0.0
 40
0.6147225979180746
100
AcDbArc
 50
122.6055692651
 51
177.394584637
  0
ARC
  5
C0
330
1F
100
AcDbEntity
  8
0
  6
SLD-実線
 62
     7
370
    25
100
AcDbCircle
 10
128.4889001489
 20
155.8456914067
 30
0.0
 40
0.61471848528466
100
AcDbArc
 50
2.605216713
 51
57.39462938490001
  0
LINE
  5
C1
330
1F
100
AcDbEntity
  8
0
  6
SLD-実線
 62
     7
370
    25
100
AcDbLine
 10
128.5372988189
 20
155.8736327857
 30
0.0
 11
128.5372988189
 21
154.5671681851
 31
0.0
  0
ARC
  5
C2
330
1F
100
AcDbEntity
  8
0
  6
SLD-実線
 62
     7
370
    25
100
AcDbCircle
 10
63.2232030866
 20
193.9185326549
 30
0.0
 40
0.577062197236424
100
AcDbArc
 50
121.9550938517
 51
151.1442452916
  0
LINE
  5
C3
330
1F
100
AcDbEntity
  8
0
  6
SLD-実線
 62
     7
370
    25
100
AcDbLine
 10
62.9177903593
 20
194.4081486733
 30
0.0
 11
128.8201410509
 21
156.3635314215
 31
0.0
  0
LINE
  5
C4
330
1F
100
AcDbEntity
  8
0
  6
SLD-実線
 62
     7
370
    25
100
AcDbLine
 10
62.6349481273
 20
193.9182500375
 30
0.0
 11
128.5372988189
 21
155.8736327857
 31
0.0
  0
ARC
  5
C5
330
1F
100
AcDbEntity
  8
0
  6
SLD-実線
 62
     7
370
    25
100
AcDbCircle
 10
63.2117270165
 20
193.8985492737
 30
0.0
 40
0.577115245919657
100
AcDbArc
 50
148.8561736502
 51
178.0437356798
  0
LINE
  5
C6
330
1F
100
AcDbEntity
  8
0
  6
SLD-実線
 62
     7
370
    25
100
AcDbLine
 10
142.3965918946
 20
164.2010496673
 30
0.0
 11
128.8201410509
 21
156.3635314215
 31
0.0
  0
ARC
  5
C7
330
1F
100
AcDbEntity
  8
0
  6
SLD-実線
 62
     7
370
    25
100
AcDbCircle
 10
142.0653509926
 20
163.6832096524
 30
0.0
 40
0.6147184852847453
100
AcDbArc
 50
2.605216713
 51
57.39462938490001
  0
LINE
  5
C8
330
1F
100
AcDbEntity
  8
0
  6
SLD-実線
 62
     7
370
    25
100
AcDbLine
 10
62.6349481273
 20
192.6117854369
 30
0.0
 11
62.6349481273
 21
193.9182500375
 31
0.0
  0
LINE
  5
C9
330
1F
100
AcDbEntity
  8
0
  6
SLD-実線
 62
     7
370
    25
100
AcDbLine
 10
62.9177903593
 20
194.4081486733
 30
0.0
 11
76.494241203
 21
202.2456669191
 31
0.0
  0
LWPOLYLINE
  5
CA
330
1F
100
AcDbEntity
  8
0
  6
SLD-実線
 62
     7
370
    25
100
AcDbPolyline
 90
       36
 70
   128
 43
0.0
 10
82.328259011
 20
195.1494253212
 10
82.407354487
 20
195.0241193128
 10
82.5756547556
 20
194.6748574533
 10
82.6738918155
 20
194.3167973274
 10
82.7007851269
 20
193.9546072285
 10
82.6559866489
 20
193.593007153
 10
82.5400778764
 20
193.2367123449
 10
82.3545698398
 20
192.8903679072
 10
82.1018824431
 20
192.558488212
 10
81.7853090675
 20
192.2453999701
 10
81.4089773464
 20
191.9551846115
 10
80.9777913066
 20
191.691626636
 10
80.497374105
 20
191.4581607875
 10
79.9739885722
 20
191.2578307456
 10
79.4144567249
 20
191.0932487452
 10
78.8260740427
 20
190.9665597747
 10
78.2165099349
 20
190.8794160514
 10
77.5937112228
 20
190.8329532372
 10
76.9657999004
 20
190.8277755166
 10
76.340958054
 20
190.863953031
 10
75.7273328669
 20
190.9410126592
 10
75.1329220329
 20
191.0579509434
 10
74.5654772795
 20
191.2132422628
 10
74.0323963662
 20
191.4048616438
 10
73.5406252915
 20
191.6303134626
 10
73.0965792664
 20
191.8866557764
 10
72.7060429461
 20
192.1705491751
 10
72.3741124772
 20
192.4782902358
 10
72.1051108752
 20
192.8058691193
 10
71.9025485114
 20
193.149013669
 10
71.7690602226
 20
193.50325347
 10
71.7063921394
 20
193.86396699
 10
71.7153611863
 20
194.2264524806
 10
71.7958458619
 20
194.5859865242
 10
71.9467995743
 20
194.9378803934
 10
72.0744357073
 20
195.149424846
  0
LINE
  5
CB
330
1F
100
AcDbEntity
  8
0
  6
SLD-実線
 62
     7
370
    25
100
AcDbLine
 10
94.8790165761
 20
180.1210074159
 30
0.0
 11
101.2429773328
 21
183.794843761
 31
0.0
  0
LINE
  5
CC
330
1F
100
AcDbEntity
  8
0
  6
SLD-実線
 62
     7
370
    25
100
AcDbLine
 10
104.0714049211
 20
174.8143545796
 30
0.0
 11
94.8790165761
 21
180.1210074159
 31
0.0
  0
LINE
  5
CD
330
1F
100
AcDbEntity
  8
0
  6
SLD-実線
 62
     7
370
    25
100
AcDbLine
 10
110.4353656779
 20
178.4881909247
 30
0.0
 11
104.0714049211
 21
174.8143545796
 31
0.0
  0
LINE
  5
CE
330
1F
100
AcDbEntity
  8
0
  6
SLD-実線
 62
     7
370
    25
100
AcDbLine
 10
101.2429773328
 20
183.794843761
 30
0.0
 11
110.4353656779
 21
178.4881909247
 31
0.0
  0
LWPOLYLINE
  5
CF
330
1F
100
AcDbEntity
  8
0
  6
SLD-実線
 62
     7
370
    25
100
AcDbPolyline
 90
       12
 70
   128
 43
0.0
 10
124.2239468784
 20
162.3641314948
 10
123.8059752646
 20
162.6346898726
 10
123.444152802
 20
162.9309897276
 10
123.1431953276
 20
163.2491689165
 10
122.9070277669
 20
163.5850790278
 10
122.7387274983
 20
163.9343408874
 10
122.6404904384
 20
164.2924010132
 10
122.613597127
 20
164.6545911121
 10
122.658395605
 20
165.0161911876
 10
122.7743043775
 20
165.3724859957
 10
122.9598124141
 20
165.7188304334
 10
122.9861230782
 20
165.7587333252
  0
LWPOLYLINE
  5
D0
330
1F
100
AcDbEntity
  8
0
  6
SLD-実線
 62
     7
370
    25
100
AcDbPolyline
 90
       25
 70
   128
 43
0.0
 10
133.239947699
 20
165.7587330401
 10
133.4118337425
 20
165.4601846716
 10
133.5453220314
 20
165.1059448706
 10
133.6079901146
 20
164.7452313507
 10
133.5990210676
 20
164.38274586
 10
133.518536392
 20
164.0232118164
 10
133.3675826797
 20
163.6713179473
 10
133.1481271675
 20
163.3316518548
 10
132.8630305731
 20
163.0086417552
 10
132.516012479
 20
162.706496958
 10
132.1115926308
 20
162.4291587713
 10
131.6550486761
 20
162.1802396085
 10
131.1523251418
 20
161.9629886906
 10
130.6099842696
 20
161.7802332502
 10
130.0350894844
 20
161.6343599211
 10
129.4351369984
 20
161.5272691714
 10
128.8179494148
 20
161.4603564613
 10
128.1915718426
 20
161.4344948505
 10
127.5641722093
 20
161.4500200286
 10
126.9439266743
 20
161.5067310762
 10
126.3389218348
 20
161.6038887532
 10
125.7570454077
 20
161.740225384
 10
125.2058831672
 20
161.9139644358
 10
124.6926211509
 20
162.1228400974
 10
124.2239468784
 20
162.3641314948
  0
SPLINE
  5
D1
330
1F
100
AcDbEntity
  8
0
  6
SLD-実線
 62
     7
370
    25
100
AcDbSpline
210
0.0
220
0.0
230
1.0
 70
     8
 71
     3
 72
     8
 73
     4
 74
     0
 42
0.000000001
 43
0.00000001
 40
0.0000000000000001
 40
0.0000000000000001
 40
0.0000000000000001
 40
0.0000000000000001
 40
0.0000801846061671
 40
0.0000801846061671
 40
0.0000801846061671
 40
0.0000801846061671
 10
126.5574003310605
 20
171.2361254701145
 30
0.0
 10
126.5950992779824
 20
171.2175422249713
 30
0.0
 10
126.6329241189882
 20
171.1972877841608
 30
0.0
 10
126.6707235048332
 20
171.1754666631882
 30
0.0
  0
SPLINE
  5
D2
330
1F
100
AcDbEntity
  8
0
  6
SLD-実線
 62
     7
370
    25
100
AcDbSpline
210
0.0
220
0.0
230
1.0
 70
     8
 71
     3
 72
    11
 73
     7
 74
     0
 42
0.000000001
 43
0.00000001
 40
-0.0005000085001367
 40
-0.0005000085001367
 40
-0.0005000085001367
 40
-0.0005000085001367
 40
0.0
 40
0.0
 40
0.0
 40
0.0005000085001373
 40
0.0005000085001373
 40
0.0005000085001373
 40
0.0005000085001373
 10
125.1431867686877
 20
170.4197173582915
 30
0.0
 10
125.3788316524695
 20
170.5619636815572
 30
0.0
 10
125.6145872824755
 20
170.6966123511593
 30
0.0
 10
125.850293549874
 20
170.8326826829899
 30
0.0
 10
126.0859998172726
 20
170.9687530148207
 30
0.0
 10
126.321755447279
 20
171.1063020017338
 30
0.0
 10
126.5574003310611
 20
171.2361254701144
 30
0.0
  0
SPLINE
  5
D3
330
1F
100
AcDbEntity
  8
0
  6
SLD-実線
 62
     7
370
    25
100
AcDbSpline
210
0.0
220
0.0
230
1.0
 70
     8
 71
     3
 72
     8
 73
     4
 74
     0
 42
0.000000001
 43
0.00000001
 40
0.0
 40
0.0
 40
0.0
 40
0.0
 40
0.0000801846061674
 40
0.0000801846061674
 40
0.0000801846061674
 40
0.0000801846061674
 10
125.256509942461
 20
170.3590585513651
 30
0.0
 10
125.2187105566157
 20
170.3808796723378
 30
0.0
 10
125.1808857156097
 20
170.4011341131485
 30
0.0
 10
125.1431867686876
 20
170.4197173582919
 30
0.0
  0
SPLINE
  5
D4
330
1F
100
AcDbEntity
  8
0
  6
SLD-実線
 62
     7
370
    25
100
AcDbSpline
210
0.0
220
0.0
230
1.0
 70
     8
 71
     3
 72
     8
 73
     4
 74
     0
 42
0.000000001
 43
0.00000001
 40
0.0
 40
0.0
 40
0.0
 40
0.0
 40
1.0
 40
1.0
 40
1.0
 40
1.0
 10
125.2565099424653
 20
170.359058551364
 30
0.0
 10
124.7985895828905
 20
169.8355048883142
 30
0.0
 10
124.7985895828901
 20
169.2173545198346
 30
0.0
 10
125.2565099424644
 20
168.6938008567846
 30
0.0
  0
SPLINE
  5
D5
330
1F
100
AcDbEntity
  8
0
  6
SLD-実線
 62
     7
370
    25
100
AcDbSpline
210
0.0
220
0.0
230
1.0
 70
     8
 71
     3
 72
     8
 73
     4
 74
     0
 42
0.000000001
 43
0.00000001
 40
0.0000000000000001
 40
0.0000000000000001
 40
0.0000000000000001
 40
0.0000000000000001
 40
0.0000801846061701
 40
0.0000801846061701
 40
0.0000801846061701
 40
0.0000801846061701
 10
125.1431867686874
 20
168.6236195122814
 30
0.0
 10
125.1808857156107
 20
168.6485625447722
 30
0.0
 10
125.218710556618
 20
168.671979735811
 30
0.0
 10
125.2565099424645
 20
168.6938008567846
 30
0.0
  0
SPLINE
  5
D6
330
1F
100
AcDbEntity
  8
0
  6
SLD-実線
 62
     7
370
    25
100
AcDbSpline
210
0.0
220
0.0
230
1.0
 70
     8
 71
     3
 72
     9
 73
     5
 74
     0
 42
0.000000001
 43
0.00000001
 40
0.0
 40
0.0
 40
0.0
 40
0.0
 40
0.5
 40
1.0
 40
1.0
 40
1.0
 40
1.0
 10
126.5574003310611
 20
167.8072114004588
 30
0.0
 10
126.3216980706655
 20
167.9494923589443
 30
0.0
 10
125.8502935498746
 20
168.2187250540963
 30
0.0
 10
125.3788890290832
 20
168.4937644334929
 30
0.0
 10
125.1431867686877
 20
168.6236195122817
 30
0.0
  0
SPLINE
  5
D7
330
1F
100
AcDbEntity
  8
0
  6
SLD-実線
 62
     7
370
    25
100
AcDbSpline
210
0.0
220
0.0
230
1.0
 70
     8
 71
     3
 72
     8
 73
     4
 74
     0
 42
0.000000001
 43
0.00000001
 40
0.0
 40
0.0
 40
0.0
 40
0.0
 40
0.0000801846061695
 40
0.0000801846061695
 40
0.0000801846061695
 40
0.0000801846061695
 10
126.6707235048367
 20
167.8773927449615
 30
0.0
 10
126.6329241189906
 20
167.8555716239881
 30
0.0
 10
126.5950992779834
 20
167.8321544329494
 30
0.0
 10
126.5574003310604
 20
167.8072114004588
 30
0.0
  0
SPLINE
  5
D8
330
1F
100
AcDbEntity
  8
0
  6
SLD-実線
 62
     7
370
    25
100
AcDbSpline
210
0.0
220
0.0
230
1.0
 70
     8
 71
     3
 72
     8
 73
     4
 74
     0
 42
0.000000001
 43
0.00000001
 40
0.0
 40
0.0
 40
0.0
 40
0.0
 40
1.0
 40
1.0
 40
1.0
 40
1.0
 10
126.6707235048349
 20
167.877392744959
 30
0.0
 10
127.5776433163783
 20
167.6130409482625
 30
0.0
 10
128.6484271829663
 20
167.6130409482627
 30
0.0
 10
129.5553469945094
 20
167.8773927449595
 30
0.0
  0
SPLINE
  5
D9
330
1F
100
AcDbEntity
  8
0
  6
SLD-実線
 62
     7
370
    25
100
AcDbSpline
210
0.0
220
0.0
230
1.0
 70
     8
 71
     3
 72
     8
 73
     4
 74
     0
 42
0.000000001
 43
0.00000001
 40
0.0000000000000001
 40
0.0000000000000001
 40
0.0000000000000001
 40
0.0000000000000001
 40
0.000080184606167
 40
0.000080184606167
 40
0.000080184606167
 40
0.000080184606167
 10
129.6686701682821
 20
167.8072114004587
 30
0.0
 10
129.6309712213603
 20
167.8321544329486
 30
0.0
 10
129.5931463803545
 20
167.8555716239866
 30
0.0
 10
129.5553469945095
 20
167.8773927449595
 30
0.0
  0
SPLINE
  5
DA
330
1F
100
AcDbEntity
  8
0
  6
SLD-実線
 62
     7
370
    25
100
AcDbSpline
210
0.0
220
0.0
230
1.0
 70
     8
 71
     3
 72
    11
 73
     7
 74
     0
 42
0.000000001
 43
0.00000001
 40
0.0
 40
0.0
 40
0.0
 40
0.0
 40
0.0005000085001371
 40
0.0005000085001371
 40
0.0005000085001371
 40
0.001000017000274
 40
0.001000017000274
 40
0.001000017000274
 40
0.001000017000274
 10
131.082883730655
 20
168.6236195122817
 30
0.0
 10
130.847238846873
 20
168.4937960439011
 30
0.0
 10
130.6114832168668
 20
168.3562470569882
 30
0.0
 10
130.3757769494681
 20
168.2201767251574
 30
0.0
 10
130.1400706820696
 20
168.0841063933267
 30
0.0
 10
129.9043150520635
 20
167.9494577237246
 30
0.0
 10
129.6686701682816
 20
167.8072114004589
 30
0.0
  0
SPLINE
  5
DB
330
1F
100
AcDbEntity
  8
0
  6
SLD-実線
 62
     7
370
    25
100
AcDbSpline
210
0.0
220
0.0
230
1.0
 70
     8
 71
     3
 72
     8
 73
     4
 74
     0
 42
0.000000001
 43
0.00000001
 40
0.0
 40
0.0
 40
0.0
 40
0.0
 40
0.0000801846061674
 40
0.0000801846061674
 40
0.0000801846061674
 40
0.0000801846061674
 10
130.9695605568817
 20
168.6938008567826
 30
0.0
 10
131.007359942727
 20
168.6719797358096
 30
0.0
 10
131.045184783733
 20
168.6485625447714
 30
0.0
 10
131.0828837306551
 20
168.6236195122813
 30
0.0
  0
SPLINE
  5
DC
330
1F
100
AcDbEntity
  8
0
  6
SLD-実線
 62
     7
370
    25
100
AcDbSpline
210
0.0
220
0.0
230
1.0
 70
     8
 71
     3
 72
     8
 73
     4
 74
     0
 42
0.000000001
 43
0.00000001
 40
0.0
 40
0.0
 40
0.0
 40
0.0
 40
1.0
 40
1.0
 40
1.0
 40
1.0
 10
130.9695605568774
 20
168.6938008567836
 30
0.0
 10
131.4274809164522
 20
169.2173545198335
 30
0.0
 10
131.4274809164525
 20
169.8355048883131
 30
0.0
 10
130.9695605568783
 20
170.359058551363
 30
0.0
  0
SPLINE
  5
DD
330
1F
100
AcDbEntity
  8
0
  6
SLD-実線
 62
     7
370
    25
100
AcDbSpline
210
0.0
220
0.0
230
1.0
 70
     8
 71
     3
 72
     8
 73
     4
 74
     0
 42
0.000000001
 43
0.00000001
 40
0.0000000000000001
 40
0.0000000000000001
 40
0.0000000000000001
 40
0.0000000000000001
 40
0.0000801846061701
 40
0.0000801846061701
 40
0.0000801846061701
 40
0.0000801846061701
 10
131.0828837306553
 20
170.4197173582918
 30
0.0
 10
131.045184783732
 20
170.4011341131479
 30
0.0
 10
131.0073599427246
 20
170.3808796723366
 30
0.0
 10
130.9695605568782
 20
170.3590585513631
 30
0.0
  0
SPLINE
  5
DE
330
1F
100
AcDbEntity
  8
0
  6
SLD-実線
 62
     7
370
    25
100
AcDbSpline
210
0.0
220
0.0
230
1.0
 70
     8
 71
     3
 72
     9
 73
     5
 74
     0
 42
0.000000001
 43
0.00000001
 40
0.0
 40
0.0
 40
0.0
 40
0.0
 40
0.5
 40
1.0
 40
1.0
 40
1.0
 40
1.0
 10
129.6686701682816
 20
171.2361254701144
 30
0.0
 10
129.9043724286771
 20
171.1062703913256
 30
0.0
 10
130.375776949468
 20
170.8312310119292
 30
0.0
 10
130.8471814702595
 20
170.561998316777
 30
0.0
 10
131.082883730655
 20
170.4197173582915
 30
0.0
  0
SPLINE
  5
DF
330
1F
100
AcDbEntity
  8
0
  6
SLD-実線
 62
     7
370
    25
100
AcDbSpline
210
0.0
220
0.0
230
1.0
 70
     8
 71
     3
 72
     8
 73
     4
 74
     0
 42
0.000000001
 43
0.00000001
 40
0.0
 40
0.0
 40
0.0
 40
0.0
 40
0.0000801846061695
 40
0.0000801846061695
 40
0.0000801846061695
 40
0.0000801846061695
 10
129.5553469945059
 20
171.1754666631862
 30
0.0
 10
129.5931463803521
 20
171.1972877841596
 30
0.0
 10
129.6309712213593
 20
171.2175422249707
 30
0.0
 10
129.6686701682823
 20
171.2361254701144
 30
0.0
  0
SPLINE
  5
E0
330
1F
100
AcDbEntity
  8
0
  6
SLD-実線
 62
     7
370
    25
100
AcDbSpline
210
0.0
220
0.0
230
1.0
 70
     8
 71
     3
 72
     8
 73
     4
 74
     0
 42
0.000000001
 43
0.00000001
 40
0.0
 40
0.0
 40
0.0
 40
0.0
 40
1.0
 40
1.0
 40
1.0
 40
1.0
 10
129.5553469945077
 20
171.1754666631887
 30
0.0
 10
128.6484271829644
 20
171.4398184598852
 30
0.0
 10
127.5776433163764
 20
171.439818459885
 30
0.0
 10
126.6707235048333
 20
171.1754666631882
 30
0.0
  0
LINE
  5
E1
330
1F
100
AcDbEntity
  8
0
  6
SLD-実線
 62
     7
370
    25
100
AcDbLine
 10
128.8201410509
 20
139.7045703356
 30
0.0
 11
99.8287641971
 21
156.4409359497
 31
0.0
  0
LINE
  5
E2
330
1F
100
AcDbEntity
  8
0
  6
SLD-実線
 62
     7
370
    25
100
AcDbLine
 10
99.8287641971
 20
156.4409359497
 30
0.0
 11
99.8287641971
 21
164.608589533
 31
0.0
  0
LWPOLYLINE
  5
E3
330
1F
100
AcDbEntity
  8
0
  6
SLD-実線
 62
     7
370
    25
100
AcDbPolyline
 90
       21
 70
   128
 43
0.0
 10
124.4360788817
 20
164.1376063
 10
124.8967742289
 20
163.9014502344
 10
125.4026147779
 20
163.6984088463
 10
125.9465076748
 20
163.5313278957
 10
126.5208114986
 20
163.4025570212
 10
127.1174679694
 20
163.3139010781
 10
127.7280990839
 20
163.2666062626
 10
128.3441338853
 20
163.2613359707
 10
128.9569238733
 20
163.2981644305
 10
129.5578691152
 20
163.3765734709
 10
130.1385292106
 20
163.4954648767
 10
130.690759281
 20
163.6531659014
 10
131.2068009725
 20
163.8474665952
 10
131.6794159033
 20
164.0756360152
 10
132.101964741
 20
164.3344739587
 10
132.4685190312
 20
164.6203451068
 10
132.7739310652
 20
164.9292376063
 10
133.0139136565
 20
165.2568152067
 10
133.1850993379
 20
165.5984788056
 10
133.2850825286
 20
165.9494333705
 10
133.3130364259
 20
166.260266161
  0
ARC
  5
E4
330
1F
100
AcDbEntity
  8
0
  6
SLD-実線
 62
     7
370
    25
100
AcDbCircle
 10
125.5639530133
 20
166.5546099229
 30
0.0
 40
2.667209509922278
100
AcDbArc
 50
186.3358429709
 51
244.9842918666
  0
LINE
  5
E5
330
1F
100
AcDbEntity
  8
0
  6
SLD-実線
 62
     7
370
    25
100
AcDbLine
 10
128.1130355533
 20
168.710022221
 30
0.0
 11
126.6707238875
 21
167.8773934193
 31
0.0
  0
LINE
  5
E6
330
1F
100
AcDbEntity
  8
0
  6
SLD-実線
 62
     7
370
    25
100
AcDbLine
 10
129.5553481245
 20
167.8773928966
 30
0.0
 11
128.1130355533
 21
168.710022221
 31
0.0
  0
LWPOLYLINE
  5
E7
330
1F
100
AcDbEntity
  8
0
  6
SLD-実線
 62
     7
370
    25
100
AcDbPolyline
 90
        3
 70
   128
 43
0.0
 10
131.6121982139
 20
162.15963032
 10
131.2819858877
 20
162.3050910225
 10
131.1130339892
 20
162.3711730619
  0
LWPOLYLINE
  5
E8
330
1F
100
AcDbEntity
  8
0
  6
SLD-実線
 62
     7
370
    25
100
AcDbPolyline
 90
        3
 70
   128
 43
0.0
 10
125.1130358002
 20
162.3711720164
 10
124.8170081489
 20
162.2517918788
 10
124.6138713697
 20
162.1596299161
  0
LINE
  5
E9
330
1F
100
AcDbEntity
  8
0
  6
SLD-実線
 62
     7
370
    25
100
AcDbLine
 10
127.4055847313
 20
168.3016183514
 30
0.0
 11
126.6988215944
 21
168.7096240257
 31
0.0
  0
LINE
  5
EA
330
1F
100
AcDbEntity
  8
0
  6
SLD-実線
 62
     7
370
    25
100
AcDbLine
 10
129.5272489359
 20
168.7096238831
 30
0.0
 11
128.8204869514
 21
168.3016188742
 31
0.0
  0
LINE
  5
EB
330
1F
100
AcDbEntity
  8
0
  6
SLD-実線
 62
     7
370
    25
100
AcDbLine
 10
129.5272491828
 20
167.8936131212
 30
0.0
 11
129.5272491828
 21
169.5264303716
 31
0.0
  0
LINE
  5
EC
330
1F
100
AcDbEntity
  8
0
  6
SLD-実線
 62
     7
370
    25
100
AcDbLine
 10
129.5272491828
 20
169.5264303716
 30
0.0
 11
130.9695617541
 21
168.6938010472
 31
0.0
  0
LINE
  5
ED
330
1F
100
AcDbEntity
  8
0
  6
SLD-実線
 62
     7
370
    25
100
AcDbLine
 10
125.2565100933
 20
168.693801665
 30
0.0
 11
126.6988217591
 21
169.5264304666
 31
0.0
  0
LINE
  5
EE
330
1F
100
AcDbEntity
  8
0
  6
SLD-実線
 62
     7
370
    25
100
AcDbLine
 10
126.6988217591
 20
167.8936132163
 30
0.0
 11
126.6988217591
 21
169.5264304666
 31
0.0
  0
LINE
  5
EF
330
1F
100
AcDbEntity
  8
0
  6
SLD-実線
 62
     7
370
    25
100
AcDbLine
 10
130.9695608486
 20
170.3590591732
 30
0.0
 11
129.5272491828
 21
169.5264303716
 31
0.0
  0
LINE
  5
F0
330
1F
100
AcDbEntity
  8
0
  6
SLD-実線
 62
     7
370
    25
100
AcDbLine
 10
126.6988217591
 20
169.5264304666
 30
0.0
 11
125.2565091878
 21
170.359059791
 31
0.0
  0
LINE
  5
F1
330
1F
100
AcDbEntity
  8
0
  6
SLD-実線
 62
     7
370
    25
100
AcDbLine
 10
128.1130353886
 20
170.3428386172
 30
0.0
 11
129.5553470544
 21
171.1754674189
 31
0.0
  0
LINE
  5
F2
330
1F
100
AcDbEntity
  8
0
  6
SLD-実線
 62
     7
370
    25
100
AcDbLine
 10
126.6707228174
 20
171.1754679416
 30
0.0
 11
128.1130353886
 21
170.3428386172
 31
0.0
  0
LINE
  5
F3
330
1F
100
AcDbEntity
  8
0
  6
SLD-実線
 62
     7
370
    25
100
AcDbLine
 10
128.1130353886
 20
168.7100213669
 30
0.0
 11
128.1130353886
 21
170.3428386172
 31
0.0
  0
LINE
  5
F4
330
1F
100
AcDbEntity
  8
0
  6
SLD-実線
 62
     7
370
    25
100
AcDbLine
 10
129.6686702165
 20
169.6080702375
 30
0.0
 11
129.6686702165
 21
171.2361239483
 31
0.0
  0
LINE
  5
F5
330
1F
100
AcDbEntity
  8
0
  6
SLD-実線
 62
     7
370
    25
100
AcDbLine
 10
126.5574004784
 20
169.608070285
 30
0.0
 11
126.5574004784
 21
171.2361239958
 31
0.0
  0
LINE
  5
F6
330
1F
100
AcDbEntity
  8
0
  6
SLD-実線
 62
     7
370
    25
100
AcDbLine
 10
126.9816632502
 20
136.3569255005
 30
0.0
 11
60.5136280946
 21
174.7281054423
 31
0.0
  0
LINE
  5
F7
330
1F
100
AcDbEntity
  8
0
  6
SLD-実線
 62
     7
370
    25
100
AcDbLine
 10
60.5136280946
 20
174.7281054423
 30
0.0
 11
60.5136280946
 21
177.0144196341
 31
0.0
  0
LINE
  5
F8
330
1F
100
AcDbEntity
  8
0
  6
SLD-実線
 62
     7
370
    25
100
AcDbLine
 10
126.9816632502
 20
138.6432396923
 30
0.0
 11
60.5136280946
 21
177.0144196341
 31
0.0
  0
LINE
  5
F9
330
1F
100
AcDbEntity
  8
0
  6
SLD-実線
 62
     7
370
    25
100
AcDbLine
 10
60.5136280946
 20
177.0144196341
 30
0.0
 11
62.3521058953
 21
178.0757502774
 31
0.0
  0
LINE
  5
FA
330
1F
100
AcDbEntity
  8
0
  6
SLD-実線
 62
     7
370
    25
100
AcDbLine
 10
91.3434827491
 20
161.3393846632
 30
0.0
 11
62.3521058953
 21
178.0757502774
 31
0.0
  0
LINE
  5
FB
330
1F
100
AcDbEntity
  8
0
  6
SLD-実線
 62
     7
370
    25
100
AcDbLine
 10
91.3434827491
 20
161.3393846632
 30
0.0
 11
92.7576958848
 21
162.1557925287
 31
0.0
  0
LINE
  5
FC
330
1F
100
AcDbEntity
  8
0
  6
SLD-実線
 62
     7
370
    25
100
AcDbLine
 10
92.7576958848
 20
162.1557925287
 30
0.0
 11
99.8287638679
 21
158.0737518707
 31
0.0
  0
ARC
  5
FD
330
1F
100
AcDbEntity
  8
0
  6
SLD-実線
 62
     7
370
    25
100
AcDbCircle
 10
125.284607224
 20
136.0863931535
 30
0.0
 40
0.6148009636896745
100
AcDbArc
 50
242.609346052
 51
297.3906539480001
  0
LINE
  5
FE
330
1F
100
AcDbEntity
  8
0
  6
SLD-実線
 62
     7
370
    25
100
AcDbLine
 10
125.001764992
 20
135.5405172549
 30
0.0
 11
58.8165720684
 21
173.7484158517
 31
0.0
  0
LINE
  5
FF
330
1F
100
AcDbEntity
  8
0
  6
SLD-実線
 62
     7
370
    25
100
AcDbLine
 10
58.8165720684
 20
173.7484158517
 30
0.0
 11
60.5136280946
 21
174.7281054423
 31
0.0
  0
ELLIPSE
  5
100
330
1F
100
AcDbEntity
  8
0
  6
SLD-実線
 62
     7
370
    25
100
AcDbEllipse
 10
125.2846081249
 20
133.4174839897
 30
0.0
 11
0.2828542047149938
 21
0.4898913122505064
 31
0.0
210
0.0
220
0.0
230
1.0
 40
0.5773346305
 41
3.141633285620438
 42
4.712429612415735
  0
LINE
  5
101
330
1F
100
AcDbEntity
  8
0
  6
SLD-実線
 62
     7
370
    25
100
AcDbLine
 10
125.001764992
 20
132.9275865327
 30
0.0
 11
125.001764992
 21
135.5405172549
 31
0.0
  0
ARC
  5
102
330
1F
100
AcDbEntity
  8
0
  6
SLD-実線
 62
     7
370
    25
100
AcDbCircle
 10
59.4306528231
 20
171.4900424799
 30
0.0
 40
0.6147160916425461
100
AcDbArc
 50
182.6051924438
 51
237.3947499338
  0
LINE
  5
103
330
1F
100
AcDbEntity
  8
0
  6
SLD-実線
 62
     7
370
    25
100
AcDbLine
 10
58.8165720684
 20
173.7484158517
 30
0.0
 11
58.8165720684
 21
171.4621014698
 31
0.0
  0
LINE
  5
104
330
1F
100
AcDbEntity
  8
0
  6
SLD-実線
 62
     7
370
    25
100
AcDbLine
 10
59.0994143004
 20
170.9722037845
 30
0.0
 11
125.001764992
 21
132.9275865327
 31
0.0
  0
ARC
  5
105
330
1F
100
AcDbEntity
  8
0
  6
SLD-実線
 62
     7
370
    25
100
AcDbCircle
 10
142.5137567134
 20
164.0375009672
 30
0.0
 40
0.2011859141716869
100
AcDbArc
 50
65.6861704321
 51
125.6174713959
  0
ELLIPSE
  5
106
330
1F
100
AcDbEntity
  8
0
  6
SLD-実線
 62
     7
370
    25
100
AcDbEllipse
 10
142.3965922296
 20
162.2413504474
 30
0.0
 11
0.2828542047150222
 21
0.4898913122504496
 31
0.0
210
0.0
220
0.0
230
1.0
 40
0.5773346305
 41
4.712429612415784
 42
5.497827775813296
  0
ELLIPSE
  5
107
330
1F
100
AcDbEntity
  8
0
  6
SLD-実線
 62
     7
370
    25
100
AcDbEllipse
 10
128.8201420309
 20
135.4585042693
 30
0.0
 11
0.2828542047150223
 21
0.4898913122504781
 31
0.0
210
0.0
220
0.0
230
1.0
 40
0.5773346305
 41
3.926950184956215
 42
4.712429612415788
  0
ELLIPSE
  5
108
330
1F
100
AcDbEntity
  8
0
  6
SLD-実線
 62
     7
370
    25
100
AcDbEllipse
 10
145.9321261356
 20
164.2823707269
 30
0.0
 11
0.5656854249492369
 21
0.0
 31
0.0
210
0.0
220
0.0
230
1.0
 40
0.5773815452
 41
0.0
 42
1.570796326794897
  0
LINE
  5
109
330
1F
100
AcDbEntity
  8
0
  6
SLD-実線
 62
     7
370
    25
100
AcDbLine
 10
80.0297750299
 20
202.6536052616
 30
0.0
 11
145.9321257215
 21
164.6089880098
 31
0.0
  0
ARC
  5
10A
330
1F
100
AcDbEntity
  8
0
  6
SLD-実線
 62
     7
370
    25
100
AcDbCircle
 10
128.8201410509
 20
134.2095988532
 30
0.0
 40
0.6148009636897568
100
AcDbArc
 50
242.609346052
 51
297.3906539480001
  0
LWPOLYLINE
  5
10B
330
1F
100
AcDbEntity
  8
0
  6
SLD-実線
 62
     7
370
    25
100
AcDbPolyline
 90
        5
 70
   128
 43
0.0
 10
80.0297743713
 20
202.7888567413
 10
80.0297743713
 20
202.779988659
 10
80.0297730542
 20
202.7537139568
 10
80.0297737128
 20
202.7110379915
 10
80.0297750299
 20
202.6536052616
  0
ARC
  5
10C
330
1F
100
AcDbEntity
  8
0
  6
SLD-実線
 62
     7
370
    25
100
AcDbCircle
 10
128.7375619182
 20
133.6440141568
 30
0.0
 40
0.2012305782476571
100
AcDbArc
 50
174.3793625467
 51
234.3019287276
  0
LINE
  5
10D
330
1F
100
AcDbEntity
  8
0
  6
SLD-実線
 62
     7
370
    25
100
AcDbLine
 10
142.9622770171
 20
149.9913121777
 30
0.0
 11
144.8007541593
 21
148.9299819146
 31
0.0
  0
LINE
  5
10E
330
1F
100
AcDbEntity
  8
0
  6
SLD-実線
 62
     7
370
    25
100
AcDbLine
 10
93.6062245564
 20
162.4849997226
 30
0.0
 11
96.7174943768
 21
164.2810975588
 31
0.0
  0
LINE
  5
10F
330
1F
100
AcDbEntity
  8
0
  6
SLD-実線
 62
     7
370
    25
100
AcDbLine
 10
96.7174943768
 20
164.2810975588
 30
0.0
 11
96.7174943768
 21
166.4046871407
 31
0.0
  0
ELLIPSE
  5
110
330
1F
100
AcDbEntity
  8
0
  6
SLD-実線
 62
     7
370
    25
100
AcDbEllipse
 10
145.9321261356
 20
145.3370424223
 30
0.0
 11
0.5656854249492369
 21
0.0
 31
0.0
210
0.0
220
0.0
230
1.0
 40
0.5773815452
 41
5.497705879720119
 42
6.283185307179586
  0
LINE
  5
111
330
1F
100
AcDbEntity
  8
0
  6
SLD-実線
 62
     7
370
    25
100
AcDbLine
 10
142.7965918287
 20
143.0650695443
 30
0.0
 11
142.6794341266
 21
143.1327413527
 31
0.0
  0
ARC
  5
112
330
1F
100
AcDbEntity
  8
0
  6
SLD-実線
 62
     7
370
    25
100
AcDbCircle
 10
142.5964155228
 20
141.6844809406
 30
0.0
 40
0.2011688121652659
100
AcDbArc
 50
294.3733805461
 51
354.3061942033
  0
LINE
  5
113
330
1F
100
AcDbEntity
  8
0
  6
SLD-実線
 62
     7
370
    25
100
AcDbLine
 10
144.8007541593
 20
148.6030469041
 30
0.0
 11
146.4978101855
 21
147.6233573135
 31
0.0
  0
LINE
  5
114
330
1F
100
AcDbEntity
  8
0
  6
SLD-実線
 62
     7
370
    25
100
AcDbLine
 10
92.7576958848
 20
162.9748437624
 30
0.0
 11
92.7576958848
 21
162.1557925287
 31
0.0
  0
LINE
  5
115
330
1F
100
AcDbEntity
  8
0
  6
SLD-実線
 62
     7
370
    25
100
AcDbLine
 10
101.2429773328
 20
180.5286799781
 30
0.0
 11
97.7079032934
 21
178.4879251739
 31
0.0
  0
LINE
  5
116
330
1F
100
AcDbEntity
  8
0
  6
SLD-実線
 62
     7
370
    25
100
AcDbLine
 10
107.6064787547
 20
176.8551088014
 30
0.0
 11
101.2429773328
 21
180.5286799781
 31
0.0
  0
LINE
  5
117
330
1F
100
AcDbEntity
  8
0
  6
SLD-実線
 62
     7
370
    25
100
AcDbLine
 10
101.2429773328
 20
180.5286799781
 30
0.0
 11
101.2429773328
 21
183.794843761
 31
0.0
  0
LINE
  5
118
330
1F
100
AcDbEntity
  8
0
  6
SLD-実線
 62
     7
370
    25
100
AcDbLine
 10
91.3434827491
 20
163.7912523869
 30
0.0
 11
91.3434827491
 21
161.3393846632
 31
0.0
  0
LINE
  5
119
330
1F
100
AcDbEntity
  8
0
  6
SLD-実線
 62
     7
370
    25
100
AcDbLine
 10
62.3521058953
 20
178.0757502774
 30
0.0
 11
62.3521058953
 21
186.2434038606
 31
0.0
  0
SPLINE
  5
11A
330
1F
100
AcDbEntity
  8
0
  6
SLD-実線
 62
     7
370
    25
100
AcDbSpline
210
0.0
220
0.0
230
1.0
 70
     8
 71
     3
 72
     8
 73
     4
 74
     0
 42
0.000000001
 43
0.00000001
 40
0.0000000000000002
 40
0.0000000000000002
 40
0.0000000000000002
 40
0.0000000000000002
 40
0.0000801846061676
 40
0.0000801846061676
 40
0.0000801846061676
 40
0.0000801846061676
 10
74.23149852325609
 20
199.8104093839094
 30
0.0
 10
74.2691974701782
 20
199.7918261387661
 30
0.0
 10
74.30702231118438
 20
199.7715716979555
 30
0.0
 10
74.34482169702966
 20
199.7497505769827
 30
0.0
  0
SPLINE
  5
11B
330
1F
100
AcDbEntity
  8
0
  6
SLD-実線
 62
     7
370
    25
100
AcDbSpline
210
0.0
220
0.0
230
1.0
 70
     8
 71
     3
 72
     8
 73
     4
 74
     0
 42
0.000000001
 43
0.00000001
 40
0.0
 40
0.0
 40
0.0
 40
0.0
 40
1.0
 40
1.0
 40
1.0
 40
1.0
 10
74.34482169703392
 20
199.7497505769816
 30
0.0
 10
73.88690133745912
 20
199.2261969139317
 30
0.0
 10
73.8869013374588
 20
198.6080465454522
 30
0.0
 10
74.34482169703307
 20
198.0844928824022
 30
0.0
  0
SPLINE
  5
11C
330
1F
100
AcDbEntity
  8
0
  6
SLD-実線
 62
     7
370
    25
100
AcDbSpline
210
0.0
220
0.0
230
1.0
 70
     8
 71
     3
 72
     8
 73
     4
 74
     0
 42
0.000000001
 43
0.00000001
 40
0.0
 40
0.0
 40
0.0
 40
0.0
 40
0.00008018460617
 40
0.00008018460617
 40
0.00008018460617
 40
0.00008018460617
 10
74.34482169703307
 20
198.0844928824022
 30
0.0
 10
74.30702231118664
 20
198.0626717614287
 30
0.0
 10
74.2691974701795
 20
198.0392545703897
 30
0.0
 10
74.23149852325625
 20
198.0143115378989
 30
0.0
  0
SPLINE
  5
11D
330
1F
100
AcDbEntity
  8
0
  6
SLD-実線
 62
     7
370
    25
100
AcDbSpline
210
0.0
220
0.0
230
1.0
 70
     8
 71
     3
 72
     9
 73
     5
 74
     0
 42
0.000000001
 43
0.00000001
 40
0.0
 40
0.0
 40
0.0
 40
0.0
 40
0.5
 40
1.0
 40
1.0
 40
1.0
 40
1.0
 10
75.6457120856297
 20
197.1979034260764
 30
0.0
 10
75.41000982523421
 20
197.3401843845619
 30
0.0
 10
74.93860530444317
 20
197.6094170797139
 30
0.0
 10
74.46720078365186
 20
197.8844564591105
 30
0.0
 10
74.23149852325636
 20
198.0143115378993
 30
0.0
  0
SPLINE
  5
11E
330
1F
100
AcDbEntity
  8
0
  6
SLD-実線
 62
     7
370
    25
100
AcDbSpline
210
0.0
220
0.0
230
1.0
 70
     8
 71
     3
 72
     8
 73
     4
 74
     0
 42
0.000000001
 43
0.00000001
 40
0.0000000000000001
 40
0.0000000000000001
 40
0.0000000000000001
 40
0.0000000000000001
 40
0.0000801846061695
 40
0.0000801846061695
 40
0.0000801846061695
 40
0.0000801846061695
 10
75.64571208562919
 20
197.1979034260762
 30
0.0
 10
75.68341103255217
 20
197.2228464585669
 30
0.0
 10
75.72123587355914
 20
197.2462636496057
 30
0.0
 10
75.7590352594053
 20
197.2680847705791
 30
0.0
  0
SPLINE
  5
11F
330
1F
100
AcDbEntity
  8
0
  6
SLD-実線
 62
     7
370
    25
100
AcDbSpline
210
0.0
220
0.0
230
1.0
 70
     8
 71
     3
 72
     8
 73
     4
 74
     0
 42
0.000000001
 43
0.00000001
 40
0.0
 40
0.0
 40
0.0
 40
0.0
 40
0.9999999999999999
 40
0.9999999999999999
 40
0.9999999999999999
 40
0.9999999999999999
 10
75.75903525940359
 20
197.2680847705765
 30
0.0
 10
76.66595507094698
 20
197.00373297388
 30
0.0
 10
77.73673893753494
 20
197.0037329738802
 30
0.0
 10
78.64365874907806
 20
197.268084770577
 30
0.0
  0
SPLINE
  5
120
330
1F
100
AcDbEntity
  8
0
  6
SLD-実線
 62
     7
370
    25
100
AcDbSpline
210
0.0
220
0.0
230
1.0
 70
     8
 71
     3
 72
     8
 73
     4
 74
     0
 42
0.000000001
 43
0.00000001
 40
0.0
 40
0.0
 40
0.0
 40
0.0
 40
0.000080184606167
 40
0.000080184606167
 40
0.000080184606167
 40
0.000080184606167
 10
78.64365874907806
 20
197.268084770577
 30
0.0
 10
78.68145813492306
 20
197.2462636496042
 30
0.0
 10
78.71928297592909
 20
197.2228464585662
 30
0.0
 10
78.75698192285093
 20
197.1979034260763
 30
0.0
  0
SPLINE
  5
121
330
1F
100
AcDbEntity
  8
0
  6
SLD-実線
 62
     7
370
    25
100
AcDbSpline
210
0.0
220
0.0
230
1.0
 70
     8
 71
     3
 72
    11
 73
     7
 74
     0
 42
0.000000001
 43
0.00000001
 40
-0.0005000085001368
 40
-0.0005000085001368
 40
-0.0005000085001368
 40
-0.0005000085001368
 40
0.0
 40
0.0
 40
0.0
 40
0.0005000085001371
 40
0.0005000085001371
 40
0.0005000085001371
 40
0.0005000085001371
 10
78.75698192285027
 20
197.1979034260764
 30
0.0
 10
78.99262680663216
 20
197.3401497493421
 30
0.0
 10
79.22838243663828
 20
197.4747984189443
 30
0.0
 10
79.46408870403677
 20
197.610868750775
 30
0.0
 10
79.69979497143537
 20
197.7469390826057
 30
0.0
 10
79.93555060144162
 20
197.8844880695187
 30
0.0
 10
80.1711954852236
 20
198.0143115378993
 30
0.0
  0
SPLINE
  5
122
330
1F
100
AcDbEntity
  8
0
  6
SLD-実線
 62
     7
370
    25
100
AcDbSpline
210
0.0
220
0.0
230
1.0
 70
     8
 71
     3
 72
     8
 73
     4
 74
     0
 42
0.000000001
 43
0.00000001
 40
0.0000000000000002
 40
0.0000000000000002
 40
0.0000000000000002
 40
0.0000000000000002
 40
0.0000801846061676
 40
0.0000801846061676
 40
0.0000801846061676
 40
0.0000801846061676
 10
80.17119548522389
 20
198.0143115378989
 30
0.0
 10
80.13349653830178
 20
198.039254570389
 30
0.0
 10
80.0956716972956
 20
198.0626717614272
 30
0.0
 10
80.05787231145032
 20
198.0844928824001
 30
0.0
  0
SPLINE
  5
123
330
1F
100
AcDbEntity
  8
0
  6
SLD-実線
 62
     7
370
    25
100
AcDbSpline
210
0.0
220
0.0
230
1.0
 70
     8
 71
     3
 72
     8
 73
     4
 74
     0
 42
0.000000001
 43
0.00000001
 40
0.0
 40
0.0
 40
0.0
 40
0.0
 40
1.0
 40
1.0
 40
1.0
 40
1.0
 10
80.05787231144606
 20
198.0844928824012
 30
0.0
 10
80.51579267102086
 20
198.6080465454511
 30
0.0
 10
80.51579267102119
 20
199.2261969139306
 30
0.0
 10
80.05787231144693
 20
199.7497505769806
 30
0.0
  0
SPLINE
  5
124
330
1F
100
AcDbEntity
  8
0
  6
SLD-実線
 62
     7
370
    25
100
AcDbSpline
210
0.0
220
0.0
230
1.0
 70
     8
 71
     3
 72
     8
 73
     4
 74
     0
 42
0.000000001
 43
0.00000001
 40
0.0
 40
0.0
 40
0.0
 40
0.0
 40
0.00008018460617
 40
0.00008018460617
 40
0.00008018460617
 40
0.00008018460617
 10
80.05787231144693
 20
199.7497505769806
 30
0.0
 10
80.09567169729334
 20
199.7715716979542
 30
0.0
 10
80.13349653830049
 20
199.7918261387656
 30
0.0
 10
80.17119548522373
 20
199.8104093839094
 30
0.0
  0
SPLINE
  5
125
330
1F
100
AcDbEntity
  8
0
  6
SLD-実線
 62
     7
370
    25
100
AcDbSpline
210
0.0
220
0.0
230
1.0
 70
     8
 71
     3
 72
     9
 73
     5
 74
     0
 42
0.000000001
 43
0.00000001
 40
0.0
 40
0.0
 40
0.0
 40
0.0
 40
0.5
 40
1.0
 40
1.0
 40
1.0
 40
1.0
 10
78.75698192285027
 20
200.6268174957319
 30
0.0
 10
78.99268418324579
 20
200.4969624169432
 30
0.0
 10
79.46408870403684
 20
200.2219230375467
 30
0.0
 10
79.9354932248281
 20
199.9526903423945
 30
0.0
 10
80.1711954852236
 20
199.8104093839091
 30
0.0
  0
SPLINE
  5
126
330
1F
100
AcDbEntity
  8
0
  6
SLD-実線
 62
     7
370
    25
100
AcDbSpline
210
0.0
220
0.0
230
1.0
 70
     8
 71
     3
 72
     8
 73
     4
 74
     0
 42
0.000000001
 43
0.00000001
 40
0.0000000000000001
 40
0.0000000000000001
 40
0.0000000000000001
 40
0.0000000000000001
 40
0.0000801846061695
 40
0.0000801846061695
 40
0.0000801846061695
 40
0.0000801846061695
 10
78.7569819228508
 20
200.6268174957321
 30
0.0
 10
78.71928297592781
 20
200.6082342505883
 30
0.0
 10
78.68145813492085
 20
200.5879798097771
 30
0.0
 10
78.64365874907469
 20
200.5661586888038
 30
0.0
  0
SPLINE
  5
127
330
1F
100
AcDbEntity
  8
0
  6
SLD-実線
 62
     7
370
    25
100
AcDbSpline
210
0.0
220
0.0
230
1.0
 70
     8
 71
     3
 72
     8
 73
     4
 74
     0
 42
0.000000001
 43
0.00000001
 40
0.0
 40
0.0
 40
0.0
 40
0.0
 40
1.0
 40
1.0
 40
1.0
 40
1.0
 10
78.6436587490764
 20
200.5661586888063
 30
0.0
 10
77.73673893753299
 20
200.8305104855028
 30
0.0
 10
76.66595507094505
 20
200.8305104855026
 30
0.0
 10
75.75903525940191
 20
200.5661586888058
 30
0.0
  0
SPLINE
  5
128
330
1F
100
AcDbEntity
  8
0
  6
SLD-実線
 62
     7
370
    25
100
AcDbSpline
210
0.0
220
0.0
230
1.0
 70
     8
 71
     3
 72
     8
 73
     4
 74
     0
 42
0.000000001
 43
0.00000001
 40
0.0
 40
0.0
 40
0.0
 40
0.0
 40
0.0000801846061669
 40
0.0000801846061669
 40
0.0000801846061669
 40
0.0000801846061669
 10
75.75903525940193
 20
200.5661586888058
 30
0.0
 10
75.72123587355692
 20
200.5879798097784
 30
0.0
 10
75.68341103255091
 20
200.6082342505888
 30
0.0
 10
75.64571208562906
 20
200.626817495732
 30
0.0
  0
SPLINE
  5
129
330
1F
100
AcDbEntity
  8
0
  6
SLD-実線
 62
     7
370
    25
100
AcDbSpline
210
0.0
220
0.0
230
1.0
 70
     8
 71
     3
 72
    11
 73
     7
 74
     0
 42
0.000000001
 43
0.00000001
 40
-0.0005000085001365
 40
-0.0005000085001365
 40
-0.0005000085001365
 40
-0.0005000085001365
 40
0.0
 40
0.0
 40
0.0
 40
0.0005000085001375
 40
0.0005000085001375
 40
0.0005000085001375
 40
0.0005000085001375
 10
75.64571208562971
 20
200.626817495732
 30
0.0
 10
75.41006720184798
 20
200.4969940273515
 30
0.0
 10
75.17431157184201
 20
200.3594450404387
 30
0.0
 10
74.93860530444368
 20
200.2233747086081
 30
0.0
 10
74.70289903704493
 20
200.0873043767773
 30
0.0
 10
74.46714340703852
 20
199.952655707175
 30
0.0
 10
74.23149852325636
 20
199.8104093839091
 30
0.0
  0
LWPOLYLINE
  5
12A
330
1F
100
AcDbEntity
  8
0
  6
SLD-実線
 62
     7
370
    25
100
AcDbPolyline
 90
       29
 70
   128
 43
0.0
 10
82.4013477379
 20
195.6509584421
 10
82.3962099383
 20
195.5175486424
 10
82.3324142623
 20
195.1637925122
 10
82.1965911038
 20
194.8168742084
 10
81.9906441506
 20
194.4816655101
 10
81.7174670471
 20
194.1628706366
 10
81.380893222
 20
193.8649653488
 10
80.9856480512
 20
193.592131317
 10
80.5372790005
 20
193.3481990653
 10
80.0420806749
 20
193.1365925381
 10
79.507005195
 20
192.9602819238
 10
78.9395639812
 20
192.8217421623
 10
78.3477211415
 20
192.7229187719
 10
77.7397867668
 20
192.6651981839
 10
77.124290984
 20
192.6493928207
 10
76.5098790009
 20
192.675721565
 10
75.9051741284
 20
192.7438158424
 10
75.3186638529
 20
192.8527207616
 10
74.7585826148
 20
193.0009065202
 10
74.2327917893
 20
193.1862933998
 10
73.748673331
 20
193.4062785692
 10
73.3130250655
 20
193.6577729596
 10
72.931958286
 20
193.9372485968
 10
72.6108239957
 20
194.2407811795
 10
72.3541309198
 20
194.564109196
 10
72.1654816258
 20
194.9026943711
 10
72.047526097
 20
195.2517830634
 10
72.0019184325
 20
195.6064755514
 10
72.001345828
 20
195.6509593925
  0
LINE
  5
12B
330
1F
100
AcDbEntity
  8
0
  6
SLD-実線
 62
     7
370
    25
100
AcDbLine
 10
75.7590351995
 20
197.2680857004
 30
0.0
 11
77.2013468653
 21
198.1007145021
 31
0.0
  0
LINE
  5
12C
330
1F
100
AcDbEntity
  8
0
  6
SLD-実線
 62
     7
370
    25
100
AcDbLine
 10
77.2013468653
 20
198.1007145021
 30
0.0
 11
78.6436594365
 21
197.2680851777
 31
0.0
  0
LWPOLYLINE
  5
12D
330
1F
100
AcDbEntity
  8
0
  6
SLD-実線
 62
     7
370
    25
100
AcDbPolyline
 90
        3
 70
   128
 43
0.0
 10
80.700509526
 20
191.5503226011
 10
80.621761103
 20
191.5871125688
 10
80.2013479354
 20
191.7618638223
  0
LWPOLYLINE
  5
12E
330
1F
100
AcDbEntity
  8
0
  6
SLD-実線
 62
     7
370
    25
100
AcDbPolyline
 90
        3
 70
   128
 43
0.0
 10
74.2013457951
 20
191.7618650578
 10
74.1620571121
 20
191.7469639757
 10
73.7021826817
 20
191.5503221972
  0
LINE
  5
12F
330
1F
100
AcDbEntity
  8
0
  6
SLD-実線
 62
     7
370
    25
100
AcDbLine
 10
75.7871329065
 20
198.1003163068
 30
0.0
 11
76.4938960433
 21
197.6923106325
 31
0.0
  0
LINE
  5
130
330
1F
100
AcDbEntity
  8
0
  6
SLD-実線
 62
     7
370
    25
100
AcDbLine
 10
77.9087982635
 20
197.6923111552
 30
0.0
 11
78.6155602479
 21
198.1003161642
 31
0.0
  0
LINE
  5
131
330
1F
100
AcDbEntity
  8
0
  6
SLD-実線
 62
     7
370
    25
100
AcDbLine
 10
78.6155604948
 20
197.2843054023
 30
0.0
 11
78.6155604948
 21
198.9171226527
 31
0.0
  0
LINE
  5
132
330
1F
100
AcDbEntity
  8
0
  6
SLD-実線
 62
     7
370
    25
100
AcDbLine
 10
80.0578730661
 20
198.0844933283
 30
0.0
 11
78.6155604948
 21
198.9171226527
 31
0.0
  0
LINE
  5
133
330
1F
100
AcDbEntity
  8
0
  6
SLD-実線
 62
     7
370
    25
100
AcDbLine
 10
75.7871330711
 20
198.9171227477
 30
0.0
 11
74.3448214054
 21
198.0844939461
 31
0.0
  0
LINE
  5
134
330
1F
100
AcDbEntity
  8
0
  6
SLD-実線
 62
     7
370
    25
100
AcDbLine
 10
75.7871330711
 20
198.9171227477
 30
0.0
 11
75.7871330711
 21
197.2843054973
 31
0.0
  0
LINE
  5
135
330
1F
100
AcDbEntity
  8
0
  6
SLD-実線
 62
     7
370
    25
100
AcDbLine
 10
78.6155604948
 20
198.9171226527
 30
0.0
 11
80.0578721606
 21
199.7497514543
 31
0.0
  0
LINE
  5
136
330
1F
100
AcDbEntity
  8
0
  6
SLD-実線
 62
     7
370
    25
100
AcDbLine
 10
74.3448204999
 20
199.7497520721
 30
0.0
 11
75.7871330711
 21
198.9171227477
 31
0.0
  0
LINE
  5
137
330
1F
100
AcDbEntity
  8
0
  6
SLD-実線
 62
     7
370
    25
100
AcDbLine
 10
78.6436583664
 20
200.5661596999
 30
0.0
 11
77.2013467007
 21
199.7335308983
 31
0.0
  0
LINE
  5
138
330
1F
100
AcDbEntity
  8
0
  6
SLD-実線
 62
     7
370
    25
100
AcDbLine
 10
77.2013467007
 20
199.7335308983
 30
0.0
 11
75.7590341294
 21
200.5661602227
 31
0.0
  0
LINE
  5
139
330
1F
100
AcDbEntity
  8
0
  6
SLD-実線
 62
     7
370
    25
100
AcDbLine
 10
78.7569815285
 20
200.6268162294
 30
0.0
 11
78.7569815285
 21
198.9987625186
 31
0.0
  0
LINE
  5
13A
330
1F
100
AcDbEntity
  8
0
  6
SLD-実線
 62
     7
370
    25
100
AcDbLine
 10
77.2013467007
 20
199.7335308983
 30
0.0
 11
77.2013467007
 21
198.1007136479
 31
0.0
  0
LINE
  5
13B
330
1F
100
AcDbEntity
  8
0
  6
SLD-実線
 62
     7
370
    25
100
AcDbLine
 10
75.6457117905
 20
200.6268162769
 30
0.0
 11
75.6457117905
 21
198.9987625661
 31
0.0
  0
ELLIPSE
  5
13C
330
1F
100
AcDbEntity
  8
0
  6
SLD-実線
 62
     7
370
    25
100
AcDbEllipse
 10
62.9177900243
 20
192.4484505848
 30
0.0
 11
0.3999999988824215
 21
-0.2309526189597761
 31
0.0
210
0.0
220
0.0
230
1.0
 40
0.0000703729
 41
2.356235122470108
 42
3.141552021022338
  0
LINE
  5
13D
330
1F
100
AcDbEntity
  8
0
  6
SLD-実線
 62
     7
370
    25
100
AcDbLine
 10
62.5177904252
 20
194.0815313825
 30
0.0
 11
62.5183363586
 21
194.0935983474
 31
0.0
  0
LINE
  5
13E
330
1F
100
AcDbEntity
  8
0
  6
SLD-実線
 62
     7
370
    25
100
AcDbLine
 10
62.7097456126
 20
194.4229064668
 30
0.0
 11
62.7178061973
 21
194.4279521339
 31
0.0
  0
ARC
  5
13F
330
1F
100
AcDbEntity
  8
0
  6
SLD-実線
 62
     7
370
    25
100
AcDbCircle
 10
76.377072369
 20
202.0821101499
 30
0.0
 40
0.2011948120810383
100
AcDbArc
 50
54.3829373073
 51
114.3064912042
  0
LINE
  5
140
330
1F
100
AcDbEntity
  8
0
  6
SLD-実線
 62
     8
370
    25
100
AcDbLine
 10
142.3965918946
 20
164.2010496673
 30
0.0
 11
132.6447304773
 21
169.8306794334
 31
0.0
  0
LINE
  5
141
330
1F
100
AcDbEntity
  8
0
  6
SLD-実線
 62
     8
370
    25
100
AcDbLine
 10
129.6060454326
 20
171.5848749706
 30
0.0
 11
81.7330417893
 21
199.2213717145
 31
0.0
  0
LINE
  5
142
330
1F
100
AcDbEntity
  8
0
  6
SLD-実線
 62
     8
370
    25
100
AcDbLine
 10
78.6943567446
 20
200.9755672517
 30
0.0
 11
76.494241203
 21
202.2456669191
 31
0.0
  0
ARC
  5
143
330
1F
100
AcDbEntity
  8
0
  6
SLD-実線
 62
     8
370
    25
100
AcDbCircle
 10
125.4356753186
 20
168.0958153014
 30
0.0
 40
2.530890972397467
100
AcDbArc
 50
184.6276809412
 51
246.7366256251
  0
LWPOLYLINE
  5
144
330
1F
100
AcDbEntity
  8
0
  6
SLD-実線
 62
     8
370
    25
100
AcDbPolyline
 90
       21
 70
   128
 43
0.0
 10
133.3130332978
 20
167.8911716762
 10
133.2850825286
 20
167.582515262
 10
133.1850993379
 20
167.231560697
 10
133.0139136565
 20
166.8898970982
 10
132.7739310652
 20
166.5623194978
 10
132.4685190312
 20
166.2534269982
 10
132.101964741
 20
165.9675558501
 10
131.6794159033
 20
165.7087179067
 10
131.2068009725
 20
165.4805484866
 10
130.690759281
 20
165.2862477929
 10
130.1385292106
 20
165.1285467681
 10
129.5578691152
 20
165.0096553623
 10
128.9569238733
 20
164.931246322
 10
128.3441338853
 20
164.8944178621
 10
127.7280990839
 20
164.899688154
 10
127.1174679694
 20
164.9469829695
 10
126.5208114986
 20
165.0356389126
 10
125.9465076748
 20
165.1644097872
 10
125.4026147779
 20
165.3314907377
 10
124.8967742289
 20
165.5345321258
 10
124.4360788817
 20
165.7706881915
  0
ARC
  5
145
330
1F
100
AcDbEntity
  8
0
  6
SLD-実線
 62
     8
370
    25
100
AcDbCircle
 10
142.5964155228
 20
163.8943907717
 30
0.0
 40
0.2011688121652283
100
AcDbArc
 50
294.3733805461
 51
354.3061942033
  0
ARC
  5
146
330
1F
100
AcDbEntity
  8
0
  6
SLD-実線
 62
     8
370
    25
100
AcDbCircle
 10
76.6114096617
 20
202.0821076655
 30
0.0
 40
0.2011966131650667
100
AcDbArc
 50
65.6938289674
 51
125.6165638014
  0
LINE
  5
147
330
1F
100
AcDbEntity
  8
0
  6
SLD-実線
 62
     8
370
    25
100
AcDbLine
 10
145.9321257215
 20
164.6089880098
 30
0.0
 11
142.7965918287
 21
162.7988828226
 31
0.0
  0
LINE
  5
148
330
1F
100
AcDbEntity
  8
0
  6
SLD-実線
 62
     8
370
    25
100
AcDbLine
 10
78.0258280434
 20
201.4967512906
 30
0.0
 11
80.0297750299
 21
202.6536052616
 31
0.0
  0
LINE
  5
149
330
1F
100
AcDbEntity
  8
0
  6
SLD-実線
 62
     8
370
    25
100
AcDbLine
 10
128.5372988189
 20
134.8333553996
 30
0.0
 11
128.5372988189
 21
133.6637229545
 31
0.0
  0
LINE
  5
14A
330
1F
100
AcDbEntity
  8
0
  6
SLD-実線
 62
     8
370
    25
100
AcDbLine
 10
128.5372988189
 20
133.6637229545
 30
0.0
 11
127.5242571681
 21
134.2485394514
 31
0.0
  0
ARC
  5
14B
330
1F
100
AcDbEntity
  8
0
  6
SLD-実線
 62
     8
370
    25
100
AcDbCircle
 10
128.9027281064
 20
133.6440105728
 30
0.0
 40
0.2012230447485033
100
AcDbArc
 50
305.6968347393
 51
5.621873986299999
  0
ARC
  5
14C
330
1F
100
AcDbEntity
  8
0
  6
SLD-実線
 62
     8
370
    25
100
AcDbCircle
 10
142.4811808512
 20
141.4806246168
 30
0.0
 40
0.1993223637964071
100
AcDbArc
 50
305.3758517722
 51
5.9369137022
  0
LWPOLYLINE
  5
14D
330
1F
100
AcDbEntity
  8
0
  6
SLD-実線
 62
     8
370
    25
100
AcDbPolyline
 90
       29
 70
   128
 43
0.0
 10
82.401347244
 20
197.2857675393
 10
82.3962099383
 20
197.1506305338
 10
82.3324142623
 20
196.7968744037
 10
82.1965911038
 20
196.4499560999
 10
81.9906441506
 20
196.1147474016
 10
81.7174670471
 20
195.795952528
 10
81.380893222
 20
195.4980472403
 10
80.9856480512
 20
195.2252132085
 10
80.5372790005
 20
194.9812809568
 10
80.0420806749
 20
194.7696744296
 10
79.507005195
 20
194.5933638152
 10
78.9395639812
 20
194.4548240538
 10
78.3477211415
 20
194.3560006634
 10
77.7397867668
 20
194.2982800753
 10
77.124290984
 20
194.2824747121
 10
76.5098790009
 20
194.3088034564
 10
75.9051741284
 20
194.3768977338
 10
75.3186638529
 20
194.4858026531
 10
74.7585826148
 20
194.6339884116
 10
74.2327917893
 20
194.8193752913
 10
73.748673331
 20
195.0393604606
 10
73.3130250655
 20
195.290854851
 10
72.931958286
 20
195.5703304882
 10
72.6108239957
 20
195.8738630709
 10
72.3541309198
 20
196.1971910874
 10
72.1654816258
 20
196.5357762625
 10
72.047526097
 20
196.8848649548
 10
72.0019184325
 20
197.2395574428
 10
72.0013489561
 20
197.2862176602
  0
ARC
  5
14E
330
1F
100
AcDbEntity
  8
0
  6
SLD-実線
 62
     8
370
    25
100
AcDbCircle
 10
62.7179693465
 20
194.1014916544
 30
0.0
 40
0.2011716009000536
100
AcDbArc
 50
185.6942637417
 51
245.6261615089
  0
LWPOLYLINE
  5
14F
330
1F
100
AcDbEntity
  8
0
  6
SLD-実線
 62
     8
370
    25
100
AcDbPolyline
 90
        6
 70
   128
 43
0.0
 10
62.7178061973
 20
194.4279521339
 10
62.7177903923
 20
194.427941486
 10
62.760651103
 20
194.4438178892
 10
62.8095493498
 20
194.4457723043
 10
62.8626095979
 20
194.4337269881
 10
62.9177903593
 20
194.4081486733
  0
ENDSEC
  0
SECTION
  2
OBJECTS
  0
DICTIONARY
  5
C
330
0
100
AcDbDictionary
281
     1
  3
ACAD_DETAILVIEWSTYLE
350
157
  3
ACAD_GROUP
350
D
  3
ACAD_LAYOUT
350
1A
  3
ACAD_MATERIAL
350
43
  3
ACAD_MLEADERSTYLE
350
6B
  3
ACAD_MLINESTYLE
350
17
  3
ACAD_PLOTSETTINGS
350
19
  3
ACAD_PLOTSTYLENAME
350
E
  3
ACAD_SCALELIST
350
47
  3
ACAD_SECTIONVIEWSTYLE
350
158
  3
ACAD_TABLESTYLE
350
69
  3
ACAD_VISUALSTYLE
350
2A
  3
ACDB_RECOMPOSE_DATA
350
15D
  3
AcDbVariableDictionary
350
150
  3
APPDATA
350
15A
  0
SUN
  5
6D
330
29
100
AcDbSun
 90
        1
290
     0
 63
     7
421
 16777215
 40
1.0
291
     1
 91
  2455826
 92
 54000000
292
     0
 70
     2
 71
   256
280
     1
  0
DICTIONARY
  5
157
102
{ACAD_REACTORS
330
C
102
}
330
C
100
AcDbDictionary
281
     1
  0
DICTIONARY
  5
D
102
{ACAD_REACTORS
330
C
102
}
330
C
100
AcDbDictionary
281
     1
  0
DICTIONARY
  5
1A
102
{ACAD_REACTORS
330
C
102
}
330
C
100
AcDbDictionary
281
     1
  3
Layout1
350
1E
  3
Layout2
350
26
  3
Model
350
22
  0
DICTIONARY
  5
43
102
{ACAD_REACTORS
330
C
102
}
330
C
100
AcDbDictionary
281
     1
  3
ByBlock
350
45
  3
ByLayer
350
44
  3
Global
350
46
  0
DICTIONARY
  5
6B
102
{ACAD_REACTORS
330
C
102
}
330
C
100
AcDbDictionary
281
     1
  3
Standard
350
6C
  0
DICTIONARY
  5
17
102
{ACAD_REACTORS
330
C
102
}
330
C
100
AcDbDictionary
281
     1
  3
Standard
350
18
  0
DICTIONARY
  5
19
102
{ACAD_REACTORS
330
C
102
}
330
C
100
AcDbDictionary
281
     1
  0
ACDBDICTIONARYWDFLT
  5
E
102
{ACAD_REACTORS
330
C
102
}
330
C
100
AcDbDictionary
281
     1
  3
Normal
350
F
100
AcDbDictionaryWithDefault
340
F
  0
DICTIONARY
  5
47
102
{ACAD_REACTORS
330
C
102
}
330
C
100
AcDbDictionary
281
     1
  3
A0
350
48
  3
A1
350
49
  3
A2
350
4A
  3
A3
350
4B
  3
A4
350
4C
  3
A5
350
4D
  3
A6
350
4E
  3
A7
350
4F
  3
A8
350
50
  3
A9
350
51
  3
B0
350
52
  3
B1
350
53
  3
B2
350
54
  3
B3
350
55
  3
B4
350
56
  3
B5
350
57
  3
B6
350
58
  3
B7
350
59
  3
B8
350
5A
  3
B9
350
5B
  3
C0
350
5C
  3
C1
350
5D
  3
C2
350
5E
  3
C3
350
5F
  3
C4
350
60
  3
C5
350
61
  3
C6
350
62
  3
C7
350
63
  3
C8
350
64
  3
C9
350
65
  3
D0
350
66
  3
D1
350
67
  3
D2
350
68
  0
DICTIONARY
  5
158
102
{ACAD_REACTORS
330
C
102
}
330
C
100
AcDbDictionary
281
     1
  0
DICTIONARY
  5
69
102
{ACAD_REACTORS
330
C
102
}
330
C
100
AcDbDictionary
281
     1
  3
Standard
350
6A
  0
DICTIONARY
  5
2A
102
{ACAD_REACTORS
330
C
102
}
330
C
100
AcDbDictionary
281
     1
  3
2dWireframe
350
2F
  3
Basic
350
32
  3
Brighten
350
36
  3
ColorChange
350
3A
  3
Conceptual
350
34
  3
Dim
350
35
  3
EdgeColorOff
350
3D
  3
Facepattern
350
39
  3
Flat
350
2B
  3
FlatWithEdges
350
2C
  3
Gouraud
350
2D
  3
GouraudWithEdges
350
2E
  3
Hidden
350
31
  3
JitterOff
350
3B
  3
Linepattern
350
38
  3
OverhangOff
350
3C
  3
Realistic
350
33
  3
Shaded
350
42
  3
Shaded with edges
350
41
  3
Shades of Gray
350
3E
  3
Sketchy
350
3F
  3
Thicken
350
37
  3
Wireframe
350
30
  3
X-Ray
350
40
  0
XRECORD
  5
15D
102
{ACAD_REACTORS
330
C
102
}
330
C
100
AcDbXrecord
280
     1
 90
        1
330
6A
  0
DICTIONARY
  5
150
102
{ACAD_REACTORS
330
C
102
}
330
C
100
AcDbDictionary
281
     1
  3
CANNOSCALE
350
151
  3
CMLEADERSTYLE
350
156
  3
CTABLESTYLE
350
155
  3
SECTIONTHICKNESSINC
350
159
  0
DICTIONARY
  5
15A
102
{ACAD_REACTORS
330
C
102
}
330
C
100
AcDbDictionary
281
     1
  0
LAYOUT
  5
1E
102
{ACAD_REACTORS
330
1A
102
}
330
1A
100
AcDbPlotSettings
  1

  2
none_device
  4

  6

 40
0.0
 41
0.0
 42
0.0
 43
0.0
 44
0.0
 45
0.0
 46
0.0
 47
0.0
 48
0.0
 49
0.0
140
0.0
141
0.0
142
1.0
143
1.0
 70
   688
 72
     1
 73
     0
 74
     5
  7

 75
    16
 76
     0
 77
     2
 78
   300
147
1.0
148
0.0
149
0.0
100
AcDbLayout
  1
Layout1
 70
     1
 71
     1
 10
0.0
 20
0.0
 11
420.0
 21
297.0
 12
0.0
 22
0.0
 32
0.0
 14
1.000000000000000E+20
 24
1.000000000000000E+20
 34
1.000000000000000E+20
 15
-1.000000000000000E+20
 25
-1.000000000000000E+20
 35
-1.000000000000000E+20
146
0.0
 13
0.0
 23
0.0
 33
0.0
 16
1.0
 26
0.0
 36
0.0
 17
0.0
 27
1.0
 37
0.0
 76
     0
330
1B
  0
LAYOUT
  5
26
102
{ACAD_REACTORS
330
1A
102
}
330
1A
100
AcDbPlotSettings
  1

  2
none_device
  4

  6

 40
0.0
 41
0.0
 42
0.0
 43
0.0
 44
0.0
 45
0.0
 46
0.0
 47
0.0
 48
0.0
 49
0.0
140
0.0
141
0.0
142
1.0
143
1.0
 70
   688
 72
     1
 73
     0
 74
     5
  7

 75
    16
 76
     0
 77
     2
 78
   300
147
1.0
148
0.0
149
0.0
100
AcDbLayout
  1
Layout2
 70
     1
 71
     2
 10
0.0
 20
0.0
 11
0.0
 21
0.0
 12
0.0
 22
0.0
 32
0.0
 14
0.0
 24
0.0
 34
0.0
 15
0.0
 25
0.0
 35
0.0
146
0.0
 13
0.0
 23
0.0
 33
0.0
 16
1.0
 26
0.0
 36
0.0
 17
0.0
 27
1.0
 37
0.0
 76
     0
330
23
  0
LAYOUT
  5
22
102
{ACAD_REACTORS
330
1A
102
}
330
1A
100
AcDbPlotSettings
  1

  2
none_device
  4
Letter_(8.50_x_11.00_Inches)
  6

 40
6.35
 41
6.35
 42
6.35000508
 43
6.35000508
 44
215.9
 45
279.4
 46
0.0
 47
0.0
 48
0.0
 49
0.0
140
0.0
141
0.0
142
1.0
143
1.0
 70
  1712
 72
     1
 73
     0
 74
     0
  7

 75
     0
 76
     0
 77
     2
 78
   300
147
1.0
148
0.0
149
0.0
100
AcDbLayout
  1
Model
 70
     1
 71
     0
 10
0.0
 20
0.0
 11
210.0
 21
297.0
 12
0.0
 22
0.0
 32
0.0
 14
58.81657069335076
 24
127.336933468
 34
0.0
 15
186.4705552763977
 25
202.7888567413
 35
0.0
146
0.0
 13
0.0
 23
0.0
 33
0.0
 16
1.0
 26
0.0
 36
0.0
 17
0.0
 27
1.0
 37
0.0
 76
     0
330
1F
331
29
  0
MATERIAL
  5
45
102
{ACAD_REACTORS
330
43
102
}
330
43
100
AcDbMaterial
  1
ByBlock
 72
     1
 94
      127
  0
MATERIAL
  5
44
102
{ACAD_REACTORS
330
43
102
}
330
43
100
AcDbMaterial
  1
ByLayer
 72
     1
 94
      127
  0
MATERIAL
  5
46
102
{ACAD_REACTORS
330
43
102
}
330
43
100
AcDbMaterial
  1
Global
 72
     1
 94
      127
  0
MLEADERSTYLE
  5
6C
102
{ACAD_REACTORS
330
6B
102
}
330
6B
100
AcDbMLeaderStyle
179
     2
170
     2
171
     1
172
     0
 90
        2
 40
0.0
 41
0.0
173
     1
 91
-1056964608
340
14
 92
       -2
290
     1
 42
2.0
291
     1
 43
8.0
  3
Standard
341
0
 44
4.0
300

342
11
174
     1
178
     6
175
     1
176
     0
 93
-1056964608
 45
4.0
292
     0
297
     0
 46
4.0
343
0
 94
-1056964608
 47
1.0
 49
1.0
140
1.0
293
     1
141
0.0
294
     1
177
     0
142
1.0
295
     0
296
     0
143
3.75
271
     0
272
     9
273
     9
298
     0
  0
MLINESTYLE
  5
18
102
{ACAD_REACTORS
330
17
102
}
330
17
100
AcDbMlineStyle
  2
Standard
 70
     0
  3

 62
   256
 51
90.0
 52
90.0
 71
     2
 49
0.5
 62
   256
  6
BYLAYER
 49
-0.5
 62
   256
  6
BYLAYER
  0
ACDBPLACEHOLDER
  5
F
102
{ACAD_REACTORS
330
E
102
}
330
E
  0
SCALE
  5
48
102
{ACAD_REACTORS
330
47
102
}
330
47
100
AcDbScale
 70
     0
300
1:1
140
1.0
141
1.0
290
     1
  0
SCALE
  5
49
102
{ACAD_REACTORS
330
47
102
}
330
47
100
AcDbScale
 70
     0
300
1:2
140
1.0
141
2.0
290
     0
  0
SCALE
  5
4A
102
{ACAD_REACTORS
330
47
102
}
330
47
100
AcDbScale
 70
     0
300
1:4
140
1.0
141
4.0
290
     0
  0
SCALE
  5
4B
102
{ACAD_REACTORS
330
47
102
}
330
47
100
AcDbScale
 70
     0
300
1:5
140
1.0
141
5.0
290
     0
  0
SCALE
  5
4C
102
{ACAD_REACTORS
330
47
102
}
330
47
100
AcDbScale
 70
     0
300
1:8
140
1.0
141
8.0
290
     0
  0
SCALE
  5
4D
102
{ACAD_REACTORS
330
47
102
}
330
47
100
AcDbScale
 70
     0
300
1:10
140
1.0
141
10.0
290
     0
  0
SCALE
  5
4E
102
{ACAD_REACTORS
330
47
102
}
330
47
100
AcDbScale
 70
     0
300
1:16
140
1.0
141
16.0
290
     0
  0
SCALE
  5
4F
102
{ACAD_REACTORS
330
47
102
}
330
47
100
AcDbScale
 70
     0
300
1:20
140
1.0
141
20.0
290
     0
  0
SCALE
  5
50
102
{ACAD_REACTORS
330
47
102
}
330
47
100
AcDbScale
 70
     0
300
1:30
140
1.0
141
30.0
290
     0
  0
SCALE
  5
51
102
{ACAD_REACTORS
330
47
102
}
330
47
100
AcDbScale
 70
     0
300
1:40
140
1.0
141
40.0
290
     0
  0
SCALE
  5
52
102
{ACAD_REACTORS
330
47
102
}
330
47
100
AcDbScale
 70
     0
300
1:50
140
1.0
141
50.0
290
     0
  0
SCALE
  5
53
102
{ACAD_REACTORS
330
47
102
}
330
47
100
AcDbScale
 70
     0
300
1:100
140
1.0
141
100.0
290
     0
  0
SCALE
  5
54
102
{ACAD_REACTORS
330
47
102
}
330
47
100
AcDbScale
 70
     0
300
2:1
140
2.0
141
1.0
290
     0
  0
SCALE
  5
55
102
{ACAD_REACTORS
330
47
102
}
330
47
100
AcDbScale
 70
     0
300
4:1
140
4.0
141
1.0
290
     0
  0
SCALE
  5
56
102
{ACAD_REACTORS
330
47
102
}
330
47
100
AcDbScale
 70
     0
300
8:1
140
8.0
141
1.0
290
     0
  0
SCALE
  5
57
102
{ACAD_REACTORS
330
47
102
}
330
47
100
AcDbScale
 70
     0
300
10:1
140
10.0
141
1.0
290
     0
  0
SCALE
  5
58
102
{ACAD_REACTORS
330
47
102
}
330
47
100
AcDbScale
 70
     0
300
100:1
140
100.0
141
1.0
290
     0
  0
SCALE
  5
59
102
{ACAD_REACTORS
330
47
102
}
330
47
100
AcDbScale
 70
     0
300
1/128" = 1'-0"
140
0.0078125
141
12.0
290
     0
  0
SCALE
  5
5A
102
{ACAD_REACTORS
330
47
102
}
330
47
100
AcDbScale
 70
     0
300
1/64" = 1'-0"
140
0.015625
141
12.0
290
     0
  0
SCALE
  5
5B
102
{ACAD_REACTORS
330
47
102
}
330
47
100
AcDbScale
 70
     0
300
1/32" = 1'-0"
140
0.03125
141
12.0
290
     0
  0
SCALE
  5
5C
102
{ACAD_REACTORS
330
47
102
}
330
47
100
AcDbScale
 70
     0
300
1/16" = 1'-0"
140
0.0625
141
12.0
290
     0
  0
SCALE
  5
5D
102
{ACAD_REACTORS
330
47
102
}
330
47
100
AcDbScale
 70
     0
300
3/32" = 1'-0"
140
0.09375
141
12.0
290
     0
  0
SCALE
  5
5E
102
{ACAD_REACTORS
330
47
102
}
330
47
100
AcDbScale
 70
     0
300
1/8" = 1'-0"
140
0.125
141
12.0
290
     0
  0
SCALE
  5
5F
102
{ACAD_REACTORS
330
47
102
}
330
47
100
AcDbScale
 70
     0
300
3/16" = 1'-0"
140
0.1875
141
12.0
290
     0
  0
SCALE
  5
60
102
{ACAD_REACTORS
330
47
102
}
330
47
100
AcDbScale
 70
     0
300
1/4" = 1'-0"
140
0.25
141
12.0
290
     0
  0
SCALE
  5
61
102
{ACAD_REACTORS
330
47
102
}
330
47
100
AcDbScale
 70
     0
300
3/8" = 1'-0"
140
0.375
141
12.0
290
     0
  0
SCALE
  5
62
102
{ACAD_REACTORS
330
47
102
}
330
47
100
AcDbScale
 70
     0
300
1/2" = 1'-0"
140
0.5
141
12.0
290
     0
  0
SCALE
  5
63
102
{ACAD_REACTORS
330
47
102
}
330
47
100
AcDbScale
 70
     0
300
3/4" = 1'-0"
140
0.75
141
12.0
290
     0
  0
SCALE
  5
64
102
{ACAD_REACTORS
330
47
102
}
330
47
100
AcDbScale
 70
     0
300
1" = 1'-0"
140
1.0
141
12.0
290
     0
  0
SCALE
  5
65
102
{ACAD_REACTORS
330
47
102
}
330
47
100
AcDbScale
 70
     0
300
1-1/2" = 1'-0"
140
1.5
141
12.0
290
     0
  0
SCALE
  5
66
102
{ACAD_REACTORS
330
47
102
}
330
47
100
AcDbScale
 70
     0
300
3" = 1'-0"
140
3.0
141
12.0
290
     0
  0
SCALE
  5
67
102
{ACAD_REACTORS
330
47
102
}
330
47
100
AcDbScale
 70
     0
300
6" = 1'-0"
140
6.0
141
12.0
290
     0
  0
SCALE
  5
68
102
{ACAD_REACTORS
330
47
102
}
330
47
100
AcDbScale
 70
     0
300
1'-0" = 1'-0"
140
12.0
141
12.0
290
     0
  0
TABLESTYLE
  5
6A
102
{ACAD_REACTORS
330
69
102
}
102
{ACAD_XDICTIONARY
360
15B
102
}
330
69
100
AcDbTableStyle
  3
Standard
 70
     0
 71
     0
 40
1.5
 41
1.5
280
     0
281
     0
  7
STANDARD
140
4.5
170
     2
 62
     0
 63
   257
283
     0
 90
        4
 91
        0
  1

274
    -2
284
     1
 64
     0
275
    -2
285
     1
 65
     0
276
    -2
286
     1
 66
     0
277
    -2
287
     1
 67
     0
278
    -2
288
     1
 68
     0
279
    -2
289
     1
 69
     0
  7
STANDARD
140
6.0
170
     5
 62
     0
 63
   257
283
     0
 90
        4
 91
        0
  1

274
    -2
284
     1
 64
     0
275
    -2
285
     1
 65
     0
276
    -2
286
     1
 66
     0
277
    -2
287
     1
 67
     0
278
    -2
288
     1
 68
     0
279
    -2
289
     1
 69
     0
  7
STANDARD
140
4.5
170
     5
 62
     0
 63
   257
283
     0
 90
        4
 91
        0
  1

274
    -2
284
     1
 64
     0
275
    -2
285
     1
 65
     0
276
    -2
286
     1
 66
     0
277
    -2
287
     1
 67
     0
278
    -2
288
     1
 68
     0
279
    -2
289
     1
 69
     0
  0
VISUALSTYLE
  5
2F
102
{ACAD_REACTORS
330
2A
102
}
330
2A
100
AcDbVisualStyle
  2
2dWireframe
 70
     4
177
     3
291
     0
 70
    58
 90
        0
176
     1
 90
        2
176
     1
 90
        0
176
     1
 90
        0
176
     1
 40
0.6
176
     1
 40
30.0
176
     1
 62
     7
420
 16777215
176
     1
 90
        1
176
     1
 90
        4
176
     1
 62
     7
176
     1
 62
   257
176
     1
 90
        1
176
     1
 90
        1
176
     1
 40
1.0
176
     1
 90
        0
176
     1
 62
   257
176
     1
 40
1.0
176
     1
 90
        1
176
     1
 90
        6
176
     1
 90
        2
176
     1
 62
     7
176
     1
 90
        5
176
     1
 90
        0
176
     1
 90
        0
176
     1
290
     0
176
     1
 90
        1
176
     1
 40
0.0
176
     1
 90
        0
176
     1
290
     1
176
     1
290
     1
176
     1
290
     0
176
     1
290
     0
176
     1
290
     0
176
     1
290
     0
176
     1
290
     0
176
     1
290
     0
176
     1
290
     0
176
     1
 90
       50
176
     1
 40
0.0
176
     1
 40
1.0
176
     1
 90
        0
176
     1
 62
    18
420
        0
176
     1
 90
       50
176
     1
 90
        3
176
     1
 62
     5
420
      255
176
     1
290
     0
176
     1
 90
       50
176
     1
 90
       50
176
     1
 90
       50
176
     1
290
     0
176
     1
 90
       50
176
     1
 62
   256
176
     0
 40
1.0
176
     0
 90
        2
176
     1
  1
strokes_ogs.tif
176
     1
290
     0
176
     1
 40
1.0
176
     1
 40
1.0
176
     1
  0
VISUALSTYLE
  5
32
102
{ACAD_REACTORS
330
2A
102
}
330
2A
100
AcDbVisualStyle
  2
Basic
 70
     7
177
     3
291
     1
 70
    58
 90
        1
176
     1
 90
        0
176
     1
 90
        1
176
     1
 90
        0
176
     1
 40
0.6
176
     1
 40
30.0
176
     1
 62
     7
420
 16777215
176
     1
 90
        0
176
     1
 90
        4
176
     1
 62
     7
176
     1
 62
   257
176
     1
 90
        1
176
     1
 90
        1
176
     1
 40
1.0
176
     1
 90
        8
176
     1
 62
     7
176
     1
 40
1.0
176
     1
 90
        1
176
     1
 90
        6
176
     1
 90
        2
176
     1
 62
     7
176
     1
 90
        5
176
     1
 90
        0
176
     1
 90
        0
176
     1
290
     0
176
     1
 90
        1
176
     1
 40
0.0
176
     1
 90
        0
176
     1
290
     0
176
     1
290
     1
176
     1
290
     1
176
     1
290
     0
176
     1
290
     0
176
     1
290
     0
176
     1
290
     0
176
     1
290
     0
176
     1
290
     0
176
     1
 90
       50
176
     1
 40
0.0
176
     1
 40
1.0
176
     1
 90
        0
176
     1
 62
    18
420
        0
176
     1
 90
       50
176
     1
 90
        3
176
     1
 62
     5
420
      255
176
     1
290
     0
176
     1
 90
       50
176
     1
 90
       50
176
     1
 90
       50
176
     1
290
     0
176
     1
 90
       50
176
     1
 62
   256
176
     0
 40
1.0
176
     0
 90
        2
176
     1
  1
strokes_ogs.tif
176
     1
290
     0
176
     1
 40
1.0
176
     1
 40
1.0
176
     1
  0
VISUALSTYLE
  5
36
102
{ACAD_REACTORS
330
2A
102
}
330
2A
100
AcDbVisualStyle
  2
Brighten
 70
    12
177
     3
291
     1
 70
    58
 90
        2
176
     1
 90
        2
176
     1
 90
        0
176
     1
 90
        0
176
     1
 40
0.6
176
     1
 40
30.0
176
     1
 62
     7
420
 16777215
176
     1
 90
        1
176
     1
 90
        4
176
     1
 62
     7
176
     1
 62
   257
176
     1
 90
        1
176
     1
 90
        1
176
     1
 40
1.0
176
     1
 90
        8
176
     1
 62
     7
176
     1
 40
1.0
176
     1
 90
        1
176
     1
 90
        6
176
     1
 90
        2
176
     1
 62
     7
176
     1
 90
        5
176
     1
 90
        0
176
     1
 90
        0
176
     1
290
     0
176
     1
 90
        1
176
     1
 40
50.0
176
     1
 90
        0
176
     1
290
     0
176
     1
290
     1
176
     1
290
     1
176
     1
290
     0
176
     1
290
     0
176
     1
290
     0
176
     1
290
     0
176
     1
290
     0
176
     1
290
     0
176
     1
 90
       50
176
     1
 40
0.0
176
     1
 40
1.0
176
     1
 90
        0
176
     1
 62
    18
420
        0
176
     1
 90
       50
176
     1
 90
        3
176
     1
 62
     5
420
      255
176
     1
290
     0
176
     1
 90
       50
176
     1
 90
       50
176
     1
 90
       50
176
     1
290
     0
176
     1
 90
       50
176
     1
 62
   256
176
     0
 40
1.0
176
     0
 90
        2
176
     1
  1
strokes_ogs.tif
176
     1
290
     0
176
     1
 40
1.0
176
     1
 40
1.0
176
     1
  0
VISUALSTYLE
  5
3A
102
{ACAD_REACTORS
330
2A
102
}
330
2A
100
AcDbVisualStyle
  2
ColorChange
 70
    16
177
     3
291
     1
 70
    58
 90
        2
176
     1
 90
        2
176
     1
 90
        3
176
     1
 90
        0
176
     1
 40
0.6
176
     1
 40
30.0
176
     1
 62
     8
420
  8421504
176
     1
 90
        1
176
     1
 90
        4
176
     1
 62
     7
176
     1
 62
   257
176
     1
 90
        1
176
     1
 90
        1
176
     1
 40
1.0
176
     1
 90
        8
176
     1
 62
     8
420
  8421504
176
     1
 40
1.0
176
     1
 90
        1
176
     1
 90
        6
176
     1
 90
        2
176
     1
 62
     7
176
     1
 90
        5
176
     1
 90
        0
176
     1
 90
        0
176
     1
290
     0
176
     1
 90
        1
176
     1
 40
0.0
176
     1
 90
        0
176
     1
290
     0
176
     1
290
     1
176
     1
290
     1
176
     1
290
     0
176
     1
290
     0
176
     1
290
     0
176
     1
290
     0
176
     1
290
     0
176
     1
290
     0
176
     1
 90
       50
176
     1
 40
0.0
176
     1
 40
1.0
176
     1
 90
        0
176
     1
 62
    18
420
        0
176
     1
 90
       50
176
     1
 90
        3
176
     1
 62
     5
420
      255
176
     1
290
     0
176
     1
 90
       50
176
     1
 90
       50
176
     1
 90
       50
176
     1
290
     0
176
     1
 90
       50
176
     1
 62
   256
176
     0
 40
1.0
176
     0
 90
        2
176
     1
  1
strokes_ogs.tif
176
     1
290
     0
176
     1
 40
1.0
176
     1
 40
1.0
176
     1
  0
VISUALSTYLE
  5
34
102
{ACAD_REACTORS
330
2A
102
}
330
2A
100
AcDbVisualStyle
  2
Conceptual
 70
     9
177
     3
291
     0
 70
    58
 90
        3
176
     1
 90
        2
176
     1
 90
        0
176
     1
 90
        0
176
     1
 40
0.6
176
     1
 40
30.0
176
     1
 62
     7
420
 16777215
176
     1
 90
        2
176
     1
 90
        2
176
     1
 62
     7
176
     1
 62
   257
176
     1
 90
        1
176
     1
 90
        1
176
     1
 40
179.0
176
     1
 90
        8
176
     1
 62
     7
176
     1
 40
1.0
176
     1
 90
        1
176
     1
 90
        6
176
     1
 90
        2
176
     1
 62
     7
176
     1
 90
        3
176
     1
 90
        0
176
     1
 90
        0
176
     1
290
     0
176
     1
 90
        1
176
     1
 40
0.0
176
     1
 90
        0
176
     1
290
     0
176
     1
290
     1
176
     1
290
     1
176
     1
290
     0
176
     1
290
     0
176
     1
290
     0
176
     1
290
     0
176
     1
290
     0
176
     1
290
     0
176
     1
 90
       50
176
     1
 40
0.0
176
     1
 40
1.0
176
     1
 90
        0
176
     1
 62
    18
420
        0
176
     1
 90
       50
176
     1
 90
        3
176
     1
 62
     5
420
      255
176
     1
290
     0
176
     1
 90
       50
176
     1
 90
       50
176
     1
 90
       50
176
     1
290
     0
176
     1
 90
       50
176
     1
 62
   256
176
     0
 40
1.0
176
     0
 90
        2
176
     1
  1
strokes_ogs.tif
176
     1
290
     0
176
     1
 40
1.0
176
     1
 40
1.0
176
     1
  0
VISUALSTYLE
  5
35
102
{ACAD_REACTORS
330
2A
102
}
330
2A
100
AcDbVisualStyle
  2
Dim
 70
    11
177
     3
291
     1
 70
    58
 90
        2
176
     1
 90
        2
176
     1
 90
        0
176
     1
 90
        0
176
     1
 40
0.6
176
     1
 40
30.0
176
     1
 62
     7
420
 16777215
176
     1
 90
        1
176
     1
 90
        4
176
     1
 62
     7
176
     1
 62
   257
176
     1
 90
        1
176
     1
 90
        1
176
     1
 40
1.0
176
     1
 90
        8
176
     1
 62
     7
176
     1
 40
1.0
176
     1
 90
        1
176
     1
 90
        6
176
     1
 90
        2
176
     1
 62
     7
176
     1
 90
        5
176
     1
 90
        0
176
     1
 90
        0
176
     1
290
     0
176
     1
 90
        1
176
     1
 40
-50.0
176
     1
 90
        0
176
     1
290
     0
176
     1
290
     1
176
     1
290
     1
176
     1
290
     0
176
     1
290
     0
176
     1
290
     0
176
     1
290
     0
176
     1
290
     0
176
     1
290
     0
176
     1
 90
       50
176
     1
 40
0.0
176
     1
 40
1.0
176
     1
 90
        0
176
     1
 62
    18
420
        0
176
     1
 90
       50
176
     1
 90
        3
176
     1
 62
     5
420
      255
176
     1
290
     0
176
     1
 90
       50
176
     1
 90
       50
176
     1
 90
       50
176
     1
290
     0
176
     1
 90
       50
176
     1
 62
   256
176
     0
 40
1.0
176
     0
 90
        2
176
     1
  1
strokes_ogs.tif
176
     1
290
     0
176
     1
 40
1.0
176
     1
 40
1.0
176
     1
  0
VISUALSTYLE
  5
3D
102
{ACAD_REACTORS
330
2A
102
}
330
2A
100
AcDbVisualStyle
  2
EdgeColorOff
 70
    22
177
     3
291
     1
 70
    58
 90
        2
176
     0
 90
        2
176
     0
 90
        0
176
     0
 90
        0
176
     0
 40
0.6
176
     0
 40
30.0
176
     0
 62
     7
420
 16777215
176
     0
 90
        1
176
     0
 90
        4
176
     0
 62
     7
176
     0
 62
   257
176
     0
 90
        1
176
     0
 90
        1
176
     0
 40
1.0
176
     0
 90
        8
176
     2
 62
     7
176
     0
 40
1.0
176
     0
 90
        1
176
     0
 90
        6
176
     0
 90
        2
176
     0
 62
     7
176
     0
 90
        5
176
     0
 90
        0
176
     0
 90
        0
176
     0
290
     0
176
     0
 90
        1
176
     0
 40
0.0
176
     0
 90
        0
176
     0
290
     0
176
     0
290
     1
176
     0
290
     1
176
     0
290
     0
176
     0
290
     0
176
     0
290
     0
176
     0
290
     0
176
     0
290
     0
176
     0
290
     0
176
     0
 90
       50
176
     0
 40
0.0
176
     0
 40
1.0
176
     0
 90
        0
176
     0
 62
    18
420
        0
176
     0
 90
       50
176
     0
 90
        3
176
     0
 62
     5
420
      255
176
     0
290
     0
176
     0
 90
       50
176
     0
 90
       50
176
     0
 90
       50
176
     0
290
     0
176
     0
 90
       50
176
     0
 62
   256
176
     0
 40
1.0
176
     0
 90
        2
176
     0
  1
strokes_ogs.tif
176
     0
290
     0
176
     0
 40
1.0
176
     0
 40
1.0
176
     0
  0
VISUALSTYLE
  5
39
102
{ACAD_REACTORS
330
2A
102
}
330
2A
100
AcDbVisualStyle
  2
Facepattern
 70
    15
177
     3
291
     1
 70
    58
 90
        2
176
     1
 90
        2
176
     1
 90
        0
176
     1
 90
        0
176
     1
 40
0.6
176
     1
 40
30.0
176
     1
 62
     7
420
 16777215
176
     1
 90
        1
176
     1
 90
        4
176
     1
 62
     7
176
     1
 62
   257
176
     1
 90
        1
176
     1
 90
        1
176
     1
 40
1.0
176
     1
 90
        8
176
     1
 62
     7
176
     1
 40
1.0
176
     1
 90
        1
176
     1
 90
        6
176
     1
 90
        2
176
     1
 62
     7
176
     1
 90
        5
176
     1
 90
        0
176
     1
 90
        0
176
     1
290
     0
176
     1
 90
        1
176
     1
 40
0.0
176
     1
 90
        0
176
     1
290
     0
176
     1
290
     1
176
     1
290
     1
176
     1
290
     0
176
     1
290
     0
176
     1
290
     0
176
     1
290
     0
176
     1
290
     0
176
     1
290
     0
176
     1
 90
       50
176
     1
 40
0.0
176
     1
 40
1.0
176
     1
 90
        0
176
     1
 62
    18
420
        0
176
     1
 90
       50
176
     1
 90
        3
176
     1
 62
     5
420
      255
176
     1
290
     0
176
     1
 90
       50
176
     1
 90
       50
176
     1
 90
       50
176
     1
290
     0
176
     1
 90
       50
176
     1
 62
   256
176
     0
 40
1.0
176
     0
 90
        2
176
     1
  1
strokes_ogs.tif
176
     1
290
     0
176
     1
 40
1.0
176
     1
 40
1.0
176
     1
  0
VISUALSTYLE
  5
2B
102
{ACAD_REACTORS
330
2A
102
}
330
2A
100
AcDbVisualStyle
  2
Flat
 70
     0
177
     3
291
     1
 70
    58
 90
        2
176
     1
 90
        1
176
     1
 90
        1
176
     1
 90
        2
176
     1
 40
0.6
176
     1
 40
30.0
176
     1
 62
     7
420
 16777215
176
     1
 90
        0
176
     1
 90
        0
176
     1
 62
     7
176
     1
 62
   257
176
     1
 90
        1
176
     1
 90
        1
176
     1
 40
1.0
176
     1
 90
        8
176
     1
 62
     7
176
     1
 40
1.0
176
     1
 90
        1
176
     1
 90
        6
176
     1
 90
        2
176
     1
 62
     7
176
     1
 90
        5
176
     1
 90
        0
176
     1
 90
        0
176
     1
290
     0
176
     1
 90
       13
176
     1
 40
0.0
176
     1
 90
        0
176
     1
290
     0
176
     1
290
     1
176
     1
290
     1
176
     1
290
     0
176
     1
290
     0
176
     1
290
     0
176
     1
290
     0
176
     1
290
     0
176
     1
290
     0
176
     1
 90
       50
176
     1
 40
0.0
176
     1
 40
1.0
176
     1
 90
        0
176
     1
 62
    18
420
        0
176
     1
 90
       50
176
     1
 90
        3
176
     1
 62
     5
420
      255
176
     1
290
     0
176
     1
 90
       50
176
     1
 90
       50
176
     1
 90
       50
176
     1
290
     0
176
     1
 90
       50
176
     1
 62
   256
176
     0
 40
1.0
176
     0
 90
        2
176
     1
  1
strokes_ogs.tif
176
     1
290
     0
176
     1
 40
1.0
176
     1
 40
1.0
176
     1
  0
VISUALSTYLE
  5
2C
102
{ACAD_REACTORS
330
2A
102
}
330
2A
100
AcDbVisualStyle
  2
FlatWithEdges
 70
     1
177
     3
291
     1
 70
    58
 90
        2
176
     1
 90
        1
176
     1
 90
        1
176
     1
 90
        2
176
     1
 40
0.6
176
     1
 40
30.0
176
     1
 62
     7
420
 16777215
176
     1
 90
        1
176
     1
 90
        0
176
     1
 62
     7
176
     1
 62
   257
176
     1
 90
        1
176
     1
 90
        1
176
     1
 40
1.0
176
     1
 90
        0
176
     1
 62
   257
176
     1
 40
1.0
176
     1
 90
        1
176
     1
 90
        6
176
     1
 90
        2
176
     1
 62
     7
176
     1
 90
        5
176
     1
 90
        0
176
     1
 90
        0
176
     1
290
     0
176
     1
 90
       13
176
     1
 40
0.0
176
     1
 90
        0
176
     1
290
     0
176
     1
290
     1
176
     1
290
     1
176
     1
290
     0
176
     1
290
     0
176
     1
290
     0
176
     1
290
     0
176
     1
290
     0
176
     1
290
     0
176
     1
 90
       50
176
     1
 40
0.0
176
     1
 40
1.0
176
     1
 90
        0
176
     1
 62
    18
420
        0
176
     1
 90
       50
176
     1
 90
        3
176
     1
 62
     5
420
      255
176
     1
290
     0
176
     1
 90
       50
176
     1
 90
       50
176
     1
 90
       50
176
     1
290
     0
176
     1
 90
       50
176
     1
 62
   256
176
     0
 40
1.0
176
     0
 90
        2
176
     1
  1
strokes_ogs.tif
176
     1
290
     0
176
     1
 40
1.0
176
     1
 40
1.0
176
     1
  0
VISUALSTYLE
  5
2D
102
{ACAD_REACTORS
330
2A
102
}
330
2A
100
AcDbVisualStyle
  2
Gouraud
 70
     2
177
     3
291
     1
 70
    58
 90
        2
176
     1
 90
        2
176
     1
 90
        1
176
     1
 90
        2
176
     1
 40
0.6
176
     1
 40
30.0
176
     1
 62
     7
420
 16777215
176
     1
 90
        0
176
     1
 90
        0
176
     1
 62
     7
176
     1
 62
   257
176
     1
 90
        1
176
     1
 90
        1
176
     1
 40
1.0
176
     1
 90
        0
176
     1
 62
     7
176
     1
 40
1.0
176
     1
 90
        1
176
     1
 90
        6
176
     1
 90
        2
176
     1
 62
     7
176
     1
 90
        5
176
     1
 90
        0
176
     1
 90
        0
176
     1
290
     0
176
     1
 90
       13
176
     1
 40
0.0
176
     1
 90
        0
176
     1
290
     0
176
     1
290
     1
176
     1
290
     1
176
     1
290
     0
176
     1
290
     0
176
     1
290
     0
176
     1
290
     0
176
     1
290
     0
176
     1
290
     0
176
     1
 90
       50
176
     1
 40
0.0
176
     1
 40
1.0
176
     1
 90
        0
176
     1
 62
    18
420
        0
176
     1
 90
       50
176
     1
 90
        3
176
     1
 62
     5
420
      255
176
     1
290
     0
176
     1
 90
       50
176
     1
 90
       50
176
     1
 90
       50
176
     1
290
     0
176
     1
 90
       50
176
     1
 62
   256
176
     0
 40
1.0
176
     0
 90
        2
176
     1
  1
strokes_ogs.tif
176
     1
290
     0
176
     1
 40
1.0
176
     1
 40
1.0
176
     1
  0
VISUALSTYLE
  5
2E
102
{ACAD_REACTORS
330
2A
102
}
330
2A
100
AcDbVisualStyle
  2
GouraudWithEdges
 70
     3
177
     3
291
     1
 70
    58
 90
        2
176
     1
 90
        2
176
     1
 90
        1
176
     1
 90
        2
176
     1
 40
0.6
176
     1
 40
30.0
176
     1
 62
     7
420
 16777215
176
     1
 90
        1
176
     1
 90
        0
176
     1
 62
     7
176
     1
 62
   257
176
     1
 90
        1
176
     1
 90
        1
176
     1
 40
1.0
176
     1
 90
        0
176
     1
 62
   257
176
     1
 40
1.0
176
     1
 90
        1
176
     1
 90
        6
176
     1
 90
        2
176
     1
 62
     7
176
     1
 90
        5
176
     1
 90
        0
176
     1
 90
        0
176
     1
290
     0
176
     1
 90
       13
176
     1
 40
0.0
176
     1
 90
        0
176
     1
290
     0
176
     1
290
     1
176
     1
290
     1
176
     1
290
     0
176
     1
290
     0
176
     1
290
     0
176
     1
290
     0
176
     1
290
     0
176
     1
290
     0
176
     1
 90
       50
176
     1
 40
0.0
176
     1
 40
1.0
176
     1
 90
        0
176
     1
 62
    18
420
        0
176
     1
 90
       50
176
     1
 90
        3
176
     1
 62
     5
420
      255
176
     1
290
     0
176
     1
 90
       50
176
     1
 90
       50
176
     1
 90
       50
176
     1
290
     0
176
     1
 90
       50
176
     1
 62
   256
176
     0
 40
1.0
176
     0
 90
        2
176
     1
  1
strokes_ogs.tif
176
     1
290
     0
176
     1
 40
1.0
176
     1
 40
1.0
176
     1
  0
VISUALSTYLE
  5
31
102
{ACAD_REACTORS
330
2A
102
}
330
2A
100
AcDbVisualStyle
  2
Hidden
 70
     6
177
     3
291
     0
 70
    58
 90
        1
176
     1
 90
        2
176
     1
 90
        2
176
     1
 90
        0
176
     1
 40
0.6
176
     1
 40
30.0
176
     1
 62
     7
420
 16777215
176
     1
 90
        2
176
     1
 90
        2
176
     1
 62
     7
176
     1
 62
   257
176
     1
 90
        2
176
     1
 90
        1
176
     1
 40
40.0
176
     1
 90
        0
176
     1
 62
   257
176
     1
 40
1.0
176
     1
 90
        1
176
     1
 90
        6
176
     1
 90
        2
176
     1
 62
     7
176
     1
 90
        3
176
     1
 90
        0
176
     1
 90
        0
176
     1
290
     0
176
     1
 90
        1
176
     1
 40
0.0
176
     1
 90
        0
176
     1
290
     0
176
     1
290
     1
176
     1
290
     1
176
     1
290
     0
176
     1
290
     0
176
     1
290
     0
176
     1
290
     0
176
     1
290
     0
176
     1
290
     0
176
     1
 90
       50
176
     1
 40
0.0
176
     1
 40
1.0
176
     1
 90
        0
176
     1
 62
    18
420
        0
176
     1
 90
       50
176
     1
 90
        3
176
     1
 62
     5
420
      255
176
     1
290
     0
176
     1
 90
       50
176
     1
 90
       50
176
     1
 90
       50
176
     1
290
     0
176
     1
 90
       50
176
     1
 62
   256
176
     0
 40
1.0
176
     0
 90
        2
176
     1
  1
strokes_ogs.tif
176
     1
290
     0
176
     1
 40
1.0
176
     1
 40
1.0
176
     1
  0
VISUALSTYLE
  5
3B
102
{ACAD_REACTORS
330
2A
102
}
330
2A
100
AcDbVisualStyle
  2
JitterOff
 70
    20
177
     3
291
     1
 70
    58
 90
        2
176
     0
 90
        2
176
     0
 90
        0
176
     0
 90
        0
176
     0
 40
0.6
176
     0
 40
30.0
176
     0
 62
     7
420
 16777215
176
     0
 90
        1
176
     0
 90
        4
176
     0
 62
     7
176
     0
 62
   257
176
     0
 90
        1
176
     0
 90
        1
176
     0
 40
1.0
176
     0
 90
       10
176
     2
 62
     7
176
     0
 40
1.0
176
     0
 90
        1
176
     0
 90
        6
176
     0
 90
        2
176
     0
 62
     7
176
     0
 90
        5
176
     0
 90
        0
176
     0
 90
        0
176
     0
290
     0
176
     0
 90
        1
176
     0
 40
0.0
176
     0
 90
        0
176
     0
290
     0
176
     0
290
     1
176
     0
290
     1
176
     0
290
     0
176
     0
290
     0
176
     0
290
     0
176
     0
290
     0
176
     0
290
     0
176
     0
290
     0
176
     0
 90
       50
176
     0
 40
0.0
176
     0
 40
1.0
176
     0
 90
        0
176
     0
 62
    18
420
        0
176
     0
 90
       50
176
     0
 90
        3
176
     0
 62
     5
420
      255
176
     0
290
     0
176
     0
 90
       50
176
     0
 90
       50
176
     0
 90
       50
176
     0
290
     0
176
     0
 90
       50
176
     0
 62
   256
176
     0
 40
1.0
176
     0
 90
        2
176
     0
  1
strokes_ogs.tif
176
     0
290
     0
176
     0
 40
1.0
176
     0
 40
1.0
176
     0
  0
VISUALSTYLE
  5
38
102
{ACAD_REACTORS
330
2A
102
}
330
2A
100
AcDbVisualStyle
  2
Linepattern
 70
    14
177
     3
291
     1
 70
    58
 90
        2
176
     1
 90
        2
176
     1
 90
        0
176
     1
 90
        0
176
     1
 40
0.6
176
     1
 40
30.0
176
     1
 62
     7
420
 16777215
176
     1
 90
        1
176
     1
 90
        4
176
     1
 62
     7
176
     1
 62
   257
176
     1
 90
        7
176
     1
 90
        7
176
     1
 40
1.0
176
     1
 90
        8
176
     1
 62
     7
176
     1
 40
1.0
176
     1
 90
        1
176
     1
 90
        6
176
     1
 90
        2
176
     1
 62
     7
176
     1
 90
        5
176
     1
 90
        0
176
     1
 90
        0
176
     1
290
     0
176
     1
 90
        1
176
     1
 40
0.0
176
     1
 90
        0
176
     1
290
     0
176
     1
290
     1
176
     1
290
     1
176
     1
290
     0
176
     1
290
     0
176
     1
290
     0
176
     1
290
     0
176
     1
290
     0
176
     1
290
     0
176
     1
 90
       50
176
     1
 40
0.0
176
     1
 40
1.0
176
     1
 90
        0
176
     1
 62
    18
420
        0
176
     1
 90
       50
176
     1
 90
        3
176
     1
 62
     5
420
      255
176
     1
290
     0
176
     1
 90
       50
176
     1
 90
       50
176
     1
 90
       50
176
     1
290
     0
176
     1
 90
       50
176
     1
 62
   256
176
     0
 40
1.0
176
     0
 90
        2
176
     1
  1
strokes_ogs.tif
176
     1
290
     0
176
     1
 40
1.0
176
     1
 40
1.0
176
     1
  0
VISUALSTYLE
  5
3C
102
{ACAD_REACTORS
330
2A
102
}
330
2A
100
AcDbVisualStyle
  2
OverhangOff
 70
    21
177
     3
291
     1
 70
    58
 90
        2
176
     0
 90
        2
176
     0
 90
        0
176
     0
 90
        0
176
     0
 40
0.6
176
     0
 40
30.0
176
     0
 62
     7
420
 16777215
176
     0
 90
        1
176
     0
 90
        4
176
     0
 62
     7
176
     0
 62
   257
176
     0
 90
        1
176
     0
 90
        1
176
     0
 40
1.0
176
     0
 90
        9
176
     2
 62
     7
176
     0
 40
1.0
176
     0
 90
        1
176
     0
 90
        6
176
     0
 90
        2
176
     0
 62
     7
176
     0
 90
        5
176
     0
 90
        0
176
     0
 90
        0
176
     0
290
     0
176
     0
 90
        1
176
     0
 40
0.0
176
     0
 90
        0
176
     0
290
     0
176
     0
290
     1
176
     0
290
     1
176
     0
290
     0
176
     0
290
     0
176
     0
290
     0
176
     0
290
     0
176
     0
290
     0
176
     0
290
     0
176
     0
 90
       50
176
     0
 40
0.0
176
     0
 40
1.0
176
     0
 90
        0
176
     0
 62
    18
420
        0
176
     0
 90
       50
176
     0
 90
        3
176
     0
 62
     5
420
      255
176
     0
290
     0
176
     0
 90
       50
176
     0
 90
       50
176
     0
 90
       50
176
     0
290
     0
176
     0
 90
       50
176
     0
 62
   256
176
     0
 40
1.0
176
     0
 90
        2
176
     0
  1
strokes_ogs.tif
176
     0
290
     0
176
     0
 40
1.0
176
     0
 40
1.0
176
     0
  0
VISUALSTYLE
  5
33
102
{ACAD_REACTORS
330
2A
102
}
330
2A
100
AcDbVisualStyle
  2
Realistic
 70
     8
177
     3
291
     0
 70
    58
 90
        2
176
     1
 90
        3
176
     1
 90
        0
176
     1
 90
        2
176
     1
 40
0.6
176
     1
 40
30.0
176
     1
 62
     7
420
 16777215
176
     1
 90
        0
176
     1
 90
        0
176
     1
 62
     7
176
     1
 62
   257
176
     1
 90
        1
176
     1
 90
        1
176
     1
 40
1.0
176
     1
 90
        8
176
     1
 62
   257
176
     1
 40
1.0
176
     1
 90
        1
176
     1
 90
        6
176
     1
 90
        2
176
     1
 62
     7
176
     1
 90
        3
176
     1
 90
        0
176
     1
 90
        0
176
     1
290
     0
176
     1
 90
       13
176
     1
 40
0.0
176
     1
 90
        0
176
     1
290
     0
176
     1
290
     1
176
     1
290
     1
176
     1
290
     0
176
     1
290
     0
176
     1
290
     0
176
     1
290
     0
176
     1
290
     0
176
     1
290
     0
176
     1
 90
       50
176
     1
 40
0.0
176
     1
 40
1.0
176
     1
 90
        0
176
     1
 62
    18
420
        0
176
     1
 90
       50
176
     1
 90
        3
176
     1
 62
     5
420
      255
176
     1
290
     0
176
     1
 90
       50
176
     1
 90
       50
176
     1
 90
       50
176
     1
290
     0
176
     1
 90
       50
176
     1
 62
   256
176
     0
 40
1.0
176
     0
 90
        2
176
     1
  1
strokes_ogs.tif
176
     1
290
     0
176
     1
 40
1.0
176
     1
 40
1.0
176
     1
  0
VISUALSTYLE
  5
42
102
{ACAD_REACTORS
330
2A
102
}
330
2A
100
AcDbVisualStyle
  2
Shaded
 70
    27
177
     3
291
     0
 70
    58
 90
        2
176
     1
 90
        2
176
     1
 90
        1
176
     1
 90
        2
176
     1
 40
0.6
176
     1
 40
30.0
176
     1
 62
     7
420
 16777215
176
     1
 90
        0
176
     1
 90
        4
176
     1
 62
     7
176
     1
 62
   257
176
     1
 90
        1
176
     1
 90
        1
176
     1
 40
1.0
176
     1
 90
        8
176
     1
 62
   257
176
     1
 40
1.0
176
     1
 90
        1
176
     1
 90
        6
176
     1
 90
        2
176
     1
 62
     8
420
  7895160
176
     1
 90
        3
176
     1
 90
        0
176
     1
 90
        0
176
     1
290
     0
176
     1
 90
        5
176
     1
 40
0.0
176
     1
 90
        0
176
     1
290
     0
176
     1
290
     1
176
     1
290
     1
176
     1
290
     0
176
     1
290
     0
176
     1
290
     0
176
     1
290
     0
176
     1
290
     0
176
     1
290
     0
176
     1
 90
       50
176
     1
 40
0.0
176
     1
 40
1.0
176
     1
 90
        0
176
     1
 62
    18
420
        0
176
     1
 90
       50
176
     1
 90
        3
176
     1
 62
     5
420
      255
176
     1
290
     0
176
     1
 90
       50
176
     1
 90
       50
176
     1
 90
       50
176
     1
290
     0
176
     1
 90
       50
176
     1
 62
   256
176
     0
 40
1.0
176
     0
 90
        2
176
     1
  1
strokes_ogs.tif
176
     1
290
     0
176
     1
 40
1.0
176
     1
 40
1.0
176
     1
  0
VISUALSTYLE
  5
41
102
{ACAD_REACTORS
330
2A
102
}
330
2A
100
AcDbVisualStyle
  2
Shaded with edges
 70
    26
177
     3
291
     0
 70
    58
 90
        2
176
     1
 90
        2
176
     1
 90
        1
176
     1
 90
        2
176
     1
 40
0.6
176
     1
 40
30.0
176
     1
 62
     7
420
 16777215
176
     1
 90
        1
176
     1
 90
       10
176
     1
 62
     7
176
     1
 62
   257
176
     1
 90
        2
176
     1
 90
        1
176
     1
 40
1.0
176
     1
 90
        8
176
     1
 62
   257
176
     1
 40
1.0
176
     1
 90
        1
176
     1
 90
        6
176
     1
 90
        2
176
     1
 62
     7
176
     1
 90
        3
176
     1
 90
        0
176
     1
 90
        0
176
     1
290
     0
176
     1
 90
        5
176
     1
 40
0.0
176
     1
 90
        0
176
     1
290
     0
176
     1
290
     1
176
     1
290
     1
176
     1
290
     0
176
     1
290
     0
176
     1
290
     0
176
     1
290
     0
176
     1
290
     0
176
     1
290
     0
176
     1
 90
       50
176
     1
 40
0.0
176
     1
 40
1.0
176
     1
 90
        0
176
     1
 62
    18
420
        0
176
     1
 90
       50
176
     1
 90
        3
176
     1
 62
     5
420
      255
176
     1
290
     0
176
     1
 90
       50
176
     1
 90
       50
176
     1
 90
       50
176
     1
290
     0
176
     1
 90
       50
176
     1
 62
   256
176
     0
 40
1.0
176
     0
 90
        2
176
     1
  1
strokes_ogs.tif
176
     1
290
     0
176
     1
 40
1.0
176
     1
 40
1.0
176
     1
  0
VISUALSTYLE
  5
3E
102
{ACAD_REACTORS
330
2A
102
}
330
2A
100
AcDbVisualStyle
  2
Shades of Gray
 70
    23
177
     3
291
     0
 70
    58
 90
        2
176
     1
 90
        2
176
     1
 90
        3
176
     1
 90
        0
176
     1
 40
0.6
176
     1
 40
30.0
176
     1
 62
     7
420
 16777215
176
     1
 90
        2
176
     1
 90
        2
176
     1
 62
     7
176
     1
 62
     7
176
     1
 90
        1
176
     1
 90
        1
176
     1
 40
40.0
176
     1
 90
        8
176
     1
 62
     7
176
     1
 40
1.0
176
     1
 90
        1
176
     1
 90
        6
176
     1
 90
        2
176
     1
 62
     7
176
     1
 90
        3
176
     1
 90
        0
176
     1
 90
        0
176
     1
290
     0
176
     1
 90
        1
176
     1
 40
0.0
176
     1
 90
        0
176
     1
290
     0
176
     1
290
     1
176
     1
290
     1
176
     1
290
     0
176
     1
290
     0
176
     1
290
     0
176
     1
290
     0
176
     1
290
     0
176
     1
290
     0
176
     1
 90
       50
176
     1
 40
0.0
176
     1
 40
1.0
176
     1
 90
        0
176
     1
 62
    18
420
        0
176
     1
 90
       50
176
     1
 90
        3
176
     1
 62
     5
420
      255
176
     1
290
     0
176
     1
 90
       50
176
     1
 90
       50
176
     1
 90
       50
176
     1
290
     0
176
     1
 90
       50
176
     1
 62
   256
176
     0
 40
1.0
176
     0
 90
        2
176
     1
  1
strokes_ogs.tif
176
     1
290
     0
176
     1
 40
1.0
176
     1
 40
1.0
176
     1
  0
VISUALSTYLE
  5
3F
102
{ACAD_REACTORS
330
2A
102
}
330
2A
100
AcDbVisualStyle
  2
Sketchy
 70
    24
177
     3
291
     0
 70
    58
 90
        1
176
     1
 90
        2
176
     1
 90
        2
176
     1
 90
        0
176
     1
 40
0.6
176
     1
 40
30.0
176
     1
 62
     7
420
 16777215
176
     1
 90
        2
176
     1
 90
        2
176
     1
 62
     7
176
     1
 62
     7
176
     1
 90
        1
176
     1
 90
        1
176
     1
 40
40.0
176
     1
 90
       11
176
     1
 62
     7
176
     1
 40
1.0
176
     1
 90
        1
176
     1
 90
        6
176
     1
 90
        2
176
     1
 62
     7
176
     1
 90
        6
176
     1
 90
        0
176
     1
 90
        0
176
     1
290
     0
176
     1
 90
        1
176
     1
 40
0.0
176
     1
 90
        0
176
     1
290
     0
176
     1
290
     1
176
     1
290
     1
176
     1
290
     0
176
     1
290
     0
176
     1
290
     0
176
     1
290
     0
176
     1
290
     0
176
     1
290
     0
176
     1
 90
       50
176
     1
 40
0.0
176
     1
 40
1.0
176
     1
 90
        0
176
     1
 62
    18
420
        0
176
     1
 90
       50
176
     1
 90
        3
176
     1
 62
     5
420
      255
176
     1
290
     0
176
     1
 90
       50
176
     1
 90
       50
176
     1
 90
       50
176
     1
290
     0
176
     1
 90
       50
176
     1
 62
   256
176
     0
 40
1.0
176
     0
 90
        2
176
     1
  1
strokes_ogs.tif
176
     1
290
     0
176
     1
 40
1.0
176
     1
 40
1.0
176
     1
  0
VISUALSTYLE
  5
37
102
{ACAD_REACTORS
330
2A
102
}
330
2A
100
AcDbVisualStyle
  2
Thicken
 70
    13
177
     3
291
     1
 70
    58
 90
        2
176
     1
 90
        2
176
     1
 90
        0
176
     1
 90
        0
176
     1
 40
0.6
176
     1
 40
30.0
176
     1
 62
     7
420
 16777215
176
     1
 90
        1
176
     1
 90
        4
176
     1
 62
     7
176
     1
 62
   257
176
     1
 90
        1
176
     1
 90
        1
176
     1
 40
1.0
176
     1
 90
       12
176
     1
 62
     7
176
     1
 40
1.0
176
     1
 90
        1
176
     1
 90
        6
176
     1
 90
        2
176
     1
 62
     7
176
     1
 90
        5
176
     1
 90
        0
176
     1
 90
        0
176
     1
290
     0
176
     1
 90
        1
176
     1
 40
0.0
176
     1
 90
        0
176
     1
290
     0
176
     1
290
     1
176
     1
290
     1
176
     1
290
     0
176
     1
290
     0
176
     1
290
     0
176
     1
290
     0
176
     1
290
     0
176
     1
290
     0
176
     1
 90
       50
176
     1
 40
0.0
176
     1
 40
1.0
176
     1
 90
        0
176
     1
 62
    18
420
        0
176
     1
 90
       50
176
     1
 90
        3
176
     1
 62
     5
420
      255
176
     1
290
     0
176
     1
 90
       50
176
     1
 90
       50
176
     1
 90
       50
176
     1
290
     0
176
     1
 90
       50
176
     1
 62
   256
176
     0
 40
1.0
176
     0
 90
        2
176
     1
  1
strokes_ogs.tif
176
     1
290
     0
176
     1
 40
1.0
176
     1
 40
1.0
176
     1
  0
VISUALSTYLE
  5
30
102
{ACAD_REACTORS
330
2A
102
}
330
2A
100
AcDbVisualStyle
  2
Wireframe
 70
     5
177
     3
291
     0
 70
    58
 90
        0
176
     1
 90
        2
176
     1
 90
        0
176
     1
 90
        0
176
     1
 40
0.6
176
     1
 40
30.0
176
     1
 62
     7
420
 16777215
176
     1
 90
        1
176
     1
 90
        4
176
     1
 62
     7
176
     1
 62
   257
176
     1
 90
        1
176
     1
 90
        1
176
     1
 40
1.0
176
     1
 90
        0
176
     1
 62
   257
176
     1
 40
1.0
176
     1
 90
        1
176
     1
 90
        6
176
     1
 90
        2
176
     1
 62
     7
176
     1
 90
        3
176
     1
 90
        0
176
     1
 90
        0
176
     1
290
     0
176
     1
 90
        1
176
     1
 40
0.0
176
     1
 90
        0
176
     1
290
     0
176
     1
290
     1
176
     1
290
     1
176
     1
290
     0
176
     1
290
     0
176
     1
290
     0
176
     1
290
     0
176
     1
290
     0
176
     1
290
     0
176
     1
 90
       50
176
     1
 40
0.0
176
     1
 40
1.0
176
     1
 90
        0
176
     1
 62
    18
420
        0
176
     1
 90
       50
176
     1
 90
        3
176
     1
 62
     5
420
      255
176
     1
290
     0
176
     1
 90
       50
176
     1
 90
       50
176
     1
 90
       50
176
     1
290
     0
176
     1
 90
       50
176
     1
 62
   256
176
     0
 40
1.0
176
     0
 90
        2
176
     1
  1
strokes_ogs.tif
176
     1
290
     0
176
     1
 40
1.0
176
     1
 40
1.0
176
     1
  0
VISUALSTYLE
  5
40
102
{ACAD_REACTORS
330
2A
102
}
330
2A
100
AcDbVisualStyle
  2
X-Ray
 70
    25
177
     3
291
     0
 70
    58
 90
        2
176
     1
 90
        2
176
     1
 90
        1
176
     1
 90
        1
176
     1
 40
0.5
176
     1
 40
30.0
176
     1
 62
     7
420
 16777215
176
     1
 90
        1
176
     1
 90
        0
176
     1
 62
     7
176
     1
 62
   257
176
     1
 90
        1
176
     1
 90
        1
176
     1
 40
1.0
176
     1
 90
        8
176
     1
 62
     7
176
     1
 40
1.0
176
     1
 90
        1
176
     1
 90
        6
176
     1
 90
        2
176
     1
 62
     7
176
     1
 90
        3
176
     1
 90
        0
176
     1
 90
        0
176
     1
290
     0
176
     1
 90
       13
176
     1
 40
0.0
176
     1
 90
        0
176
     1
290
     0
176
     1
290
     1
176
     1
290
     1
176
     1
290
     0
176
     1
290
     0
176
     1
290
     0
176
     1
290
     0
176
     1
290
     0
176
     1
290
     0
176
     1
 90
       50
176
     1
 40
0.0
176
     1
 40
1.0
176
     1
 90
        0
176
     1
 62
    18
420
        0
176
     1
 90
       50
176
     1
 90
        3
176
     1
 62
     5
420
      255
176
     1
290
     0
176
     1
 90
       50
176
     1
 90
       50
176
     1
 90
       50
176
     1
290
     0
176
     1
 90
       50
176
     1
 62
   256
176
     0
 40
1.0
176
     0
 90
        2
176
     1
  1
strokes_ogs.tif
176
     1
290
     0
176
     1
 40
1.0
176
     1
 40
1.0
176
     1
  0
DICTIONARYVAR
  5
151
102
{ACAD_REACTORS
330
150
102
}
330
150
100
DictionaryVariables
280
     0
  1
1:1
  0
DICTIONARYVAR
  5
156
102
{ACAD_REACTORS
330
150
102
}
330
150
100
DictionaryVariables
280
     0
  1
Standard
  0
DICTIONARYVAR
  5
155
102
{ACAD_REACTORS
330
150
102
}
330
150
100
DictionaryVariables
280
     0
  1
Standard
  0
DICTIONARYVAR
  5
159
102
{ACAD_REACTORS
330
150
102
}
330
150
100
DictionaryVariables
280
     0
  1
6.000000
  0
DICTIONARY
  5
15B
330
6A
100
AcDbDictionary
280
     1
281
     1
  3
ACAD_ROUNDTRIP_2008_TABLESTYLE_CELLSTYLEMAP
360
15C
  0
CELLSTYLEMAP
  5
15C
102
{ACAD_REACTORS
330
15B
102
}
330
15B
100
AcDbCellStyleMap
 90
        3
300
CELLSTYLE
  1
TABLEFORMAT_BEGIN
 90
        5
170
     1
 91
        0
 92
    32768
 62
   257
 93
        1
300
CONTENTFORMAT
  1
CONTENTFORMAT_BEGIN
 90
        0
 91
        0
 92
        4
 93
        0
300

 40
0.0
140
1.0
 94
        5
 62
     0
340
11
144
6.0
309
CONTENTFORMAT_END
171
     1
301
MARGIN
  1
CELLMARGIN_BEGIN
 40
1.5
 40
1.5
 40
1.5
 40
1.5
 40
1.5
 40
1.5
309
CELLMARGIN_END
 94
        6
 95
        1
302
GRIDFORMAT
  1
GRIDFORMAT_BEGIN
 90
        0
 91
        1
 62
     0
 92
       -2
340
14
 93
        0
 40
0.045
309
GRIDFORMAT_END
 95
        2
302
GRIDFORMAT
  1
GRIDFORMAT_BEGIN
 90
        0
 91
        1
 62
     0
 92
       -2
340
14
 93
        0
 40
0.045
309
GRIDFORMAT_END
 95
        4
302
GRIDFORMAT
  1
GRIDFORMAT_BEGIN
 90
        0
 91
        1
 62
     0
 92
       -2
340
14
 93
        0
 40
0.045
309
GRIDFORMAT_END
 95
        8
302
GRIDFORMAT
  1
GRIDFORMAT_BEGIN
 90
        0
 91
        1
 62
     0
 92
       -2
340
14
 93
        0
 40
0.045
309
GRIDFORMAT_END
 95
       16
302
GRIDFORMAT
  1
GRIDFORMAT_BEGIN
 90
        0
 91
        1
 62
     0
 92
       -2
340
14
 93
        0
 40
0.045
309
GRIDFORMAT_END
 95
       32
302
GRIDFORMAT
  1
GRIDFORMAT_BEGIN
 90
        0
 91
        1
 62
     0
 92
       -2
340
14
 93
        0
 40
0.045
309
GRIDFORMAT_END
309
TABLEFORMAT_END
  1
CELLSTYLE_BEGIN
 90
        1
 91
        1
300
_TITLE
309
CELLSTYLE_END
300
CELLSTYLE
  1
TABLEFORMAT_BEGIN
 90
        5
170
     1
 91
        0
 92
        0
 62
   257
 93
        1
300
CONTENTFORMAT
  1
CONTENTFORMAT_BEGIN
 90
        0
 91
        0
 92
        4
 93
        0
300

 40
0.0
140
1.0
 94
        5
 62
     0
340
11
144
4.5
309
CONTENTFORMAT_END
171
     1
301
MARGIN
  1
CELLMARGIN_BEGIN
 40
1.5
 40
1.5
 40
1.5
 40
1.5
 40
1.5
 40
1.5
309
CELLMARGIN_END
 94
        6
 95
        1
302
GRIDFORMAT
  1
GRIDFORMAT_BEGIN
 90
        0
 91
        1
 62
     0
 92
       -2
340
14
 93
        0
 40
0.045
309
GRIDFORMAT_END
 95
        2
302
GRIDFORMAT
  1
GRIDFORMAT_BEGIN
 90
        0
 91
        1
 62
     0
 92
       -2
340
14
 93
        0
 40
0.045
309
GRIDFORMAT_END
 95
        4
302
GRIDFORMAT
  1
GRIDFORMAT_BEGIN
 90
        0
 91
        1
 62
     0
 92
       -2
340
14
 93
        0
 40
0.045
309
GRIDFORMAT_END
 95
        8
302
GRIDFORMAT
  1
GRIDFORMAT_BEGIN
 90
        0
 91
        1
 62
     0
 92
       -2
340
14
 93
        0
 40
0.045
309
GRIDFORMAT_END
 95
       16
302
GRIDFORMAT
  1
GRIDFORMAT_BEGIN
 90
        0
 91
        1
 62
     0
 92
       -2
340
14
 93
        0
 40
0.045
309
GRIDFORMAT_END
 95
       32
302
GRIDFORMAT
  1
GRIDFORMAT_BEGIN
 90
        0
 91
        1
 62
     0
 92
       -2
340
14
 93
        0
 40
0.045
309
GRIDFORMAT_END
309
TABLEFORMAT_END
  1
CELLSTYLE_BEGIN
 90
        2
 91
        1
300
_HEADER
309
CELLSTYLE_END
300
CELLSTYLE
  1
TABLEFORMAT_BEGIN
 90
        5
170
     1
 91
        0
 92
        0
 62
   257
 93
        1
300
CONTENTFORMAT
  1
CONTENTFORMAT_BEGIN
 90
        0
 91
        0
 92
        4
 93
        0
300

 40
0.0
140
1.0
 94
        2
 62
     0
340
11
144
4.5
309
CONTENTFORMAT_END
171
     1
301
MARGIN
  1
CELLMARGIN_BEGIN
 40
1.5
 40
1.5
 40
1.5
 40
1.5
 40
1.5
 40
1.5
309
CELLMARGIN_END
 94
        6
 95
        1
302
GRIDFORMAT
  1
GRIDFORMAT_BEGIN
 90
        0
 91
        1
 62
     0
 92
       -2
340
14
 93
        0
 40
0.045
309
GRIDFORMAT_END
 95
        2
302
GRIDFORMAT
  1
GRIDFORMAT_BEGIN
 90
        0
 91
        1
 62
     0
 92
       -2
340
14
 93
        0
 40
0.045
309
GRIDFORMAT_END
 95
        4
302
GRIDFORMAT
  1
GRIDFORMAT_BEGIN
 90
        0
 91
        1
 62
     0
 92
       -2
340
14
 93
        0
 40
0.045
309
GRIDFORMAT_END
 95
        8
302
GRIDFORMAT
  1
GRIDFORMAT_BEGIN
 90
        0
 91
        1
 62
     0
 92
       -2
340
14
 93
        0
 40
0.045
309
GRIDFORMAT_END
 95
       16
302
GRIDFORMAT
  1
GRIDFORMAT_BEGIN
 90
        0
 91
        1
 62
     0
 92
       -2
340
14
 93
        0
 40
0.045
309
GRIDFORMAT_END
 95
       32
302
GRIDFORMAT
  1
GRIDFORMAT_BEGIN
 90
        0
 91
        1
 62
     0
 92
       -2
340
14
 93
        0
 40
0.045
309
GRIDFORMAT_END
309
TABLEFORMAT_END
  1
CELLSTYLE_BEGIN
 90
        3
 91
        2
300
_DATA
309
CELLSTYLE_END
  0
ENDSEC
  0
EOF
