  0
SECTION
  2
HEADER
  9
$ACADVER
  1
AC1032
  9
$ACADMAINTVER
 90
        4
  9
$DWGCODEPAGE
  3
ANSI_932
  9
$LASTSAVEDBY
  1
9128
  9
$REQUIREDVERSIONS
160
                 0
  9
$INSBASE
 10
0.0
 20
0.0
 30
0.0
  9
$EXTMIN
 10
190.7891405467726
 20
115.7503344111184
 30
0.0
  9
$EXTMAX
 10
275.8174964272316
 20
177.8757028296503
 30
0.0
  9
$LIMMIN
 10
0.0
 20
0.0
  9
$LIMMAX
 10
431.8
 20
279.4
  9
$ORTHOMODE
 70
     0
  9
$REGENMODE
 70
     1
  9
$FILLMODE
 70
     1
  9
$QTEXTMODE
 70
     0
  9
$MIRRTEXT
 70
     1
  9
$LTSCALE
 40
1.0
  9
$ATTMODE
 70
     1
  9
$TEXTSIZE
 40
3.5
  9
$TRACEWID
 40
1.0
  9
$TEXTSTYLE
  7
Standard
  9
$CLAYER
  8
0
  9
$CELTYPE
  6
ByLayer
  9
$CECOLOR
 62
   256
  9
$CELTSCALE
 40
1.0
  9
$DISPSILH
 70
     0
  9
$DIMSCALE
 40
1.0
  9
$DIMASZ
 40
3.302
  9
$DIMEXO
 40
1.0
  9
$DIMDLI
 40
3.75
  9
$DIMRND
 40
0.0
  9
$DIMDLE
 40
0.0
  9
$DIMEXE
 40
1.0
  9
$DIMTP
 40
0.0
  9
$DIMTM
 40
0.0
  9
$DIMTXT
 40
3.5
  9
$DIMCEN
 40
2.5
  9
$DIMTSZ
 40
0.0
  9
$DIMTOL
 70
     0
  9
$DIMLIM
 70
     0
  9
$DIMTIH
 70
     1
  9
$DIMTOH
 70
     1
  9
$DIMSE1
 70
     0
  9
$DIMSE2
 70
     0
  9
$DIMTAD
 70
     1
  9
$DIMZIN
 70
     1
  9
$DIMBLK
  1

  9
$DIMASO
 70
     1
  9
$DIMSHO
 70
     1
  9
$DIMPOST
  1

  9
$DIMAPOST
  1

  9
$DIMALT
 70
     0
  9
$DIMALTD
 70
     3
  9
$DIMALTF
 40
0.0393700787401575
  9
$DIMLFAC
 40
1.0
  9
$DIMTOFL
 70
     1
  9
$DIMTVP
 40
0.0
  9
$DIMTIX
 70
     0
  9
$DIMSOXD
 70
     0
  9
$DIMSAH
 70
     0
  9
$DIMBLK1
  1

  9
$DIMBLK2
  1

  9
$DIMSTYLE
  2
ISO-25
  9
$DIMCLRD
 70
     0
  9
$DIMCLRE
 70
     0
  9
$DIMCLRT
 70
     0
  9
$DIMTFAC
 40
1.0
  9
$DIMGAP
 40
1.524
  9
$DIMJUST
 70
     0
  9
$DIMSD1
 70
     0
  9
$DIMSD2
 70
     0
  9
$DIMTOLJ
 70
     0
  9
$DIMTZIN
 70
     1
  9
$DIMALTZ
 70
     0
  9
$DIMALTTZ
 70
     0
  9
$DIMUPT
 70
     0
  9
$DIMDEC
 70
     2
  9
$DIMTDEC
 70
     2
  9
$DIMALTU
 70
     2
  9
$DIMALTTD
 70
     3
  9
$DIMTXSTY
  7
Standard
  9
$DIMAUNIT
 70
     0
  9
$DIMADEC
 70
     2
  9
$DIMALTRND
 40
0.0
  9
$DIMAZIN
 70
     0
  9
$DIMDSEP
 70
    44
  9
$DIMATFIT
 70
     3
  9
$DIMFRAC
 70
     0
  9
$DIMLDRBLK
  1

  9
$DIMLUNIT
 70
     2
  9
$DIMLWD
 70
    -2
  9
$DIMLWE
 70
    -2
  9
$DIMTMOVE
 70
     0
  9
$DIMFXL
 40
1.0
  9
$DIMFXLON
 70
     0
  9
$DIMJOGANG
 40
0.7853981633974483
  9
$DIMTFILL
 70
     0
  9
$DIMTFILLCLR
 70
     0
  9
$DIMARCSYM
 70
     0
  9
$DIMLTYPE
  6

  9
$DIMLTEX1
  6

  9
$DIMLTEX2
  6

  9
$DIMTXTDIRECTION
 70
     0
  9
$LUNITS
 70
     2
  9
$LUPREC
 70
     2
  9
$SKETCHINC
 40
1.0
  9
$FILLETRAD
 40
10.0
  9
$AUNITS
 70
     0
  9
$AUPREC
 70
     2
  9
$MENU
  1
.
  9
$ELEVATION
 40
0.0
  9
$PELEVATION
 40
0.0
  9
$THICKNESS
 40
0.0
  9
$LIMCHECK
 70
     0
  9
$CHAMFERA
 40
0.0
  9
$CHAMFERB
 40
0.0
  9
$CHAMFERC
 40
0.0
  9
$CHAMFERD
 40
0.0
  9
$SKPOLY
 70
     0
  9
$TDCREATE
 40
2458914.455938148
  9
$TDUCREATE
 40
2458914.080938148
  9
$TDUPDATE
 40
2458914.458269768
  9
$TDUUPDATE
 40
2458914.083269768
  9
$TDINDWG
 40
0.000480706
  9
$TDUSRTIMER
 40
0.0004809954
  9
$USRTIMER
 70
     1
  9
$ANGBASE
 50
0.0
  9
$ANGDIR
 70
     0
  9
$PDMODE
 70
     0
  9
$PDSIZE
 40
-1.0
  9
$PLINEWID
 40
0.0
  9
$SPLFRAME
 70
     0
  9
$SPLINETYPE
 70
     6
  9
$SPLINESEGS
 70
     8
  9
$HANDSEED
  5
E9
  9
$SURFTAB1
 70
     6
  9
$SURFTAB2
 70
     6
  9
$SURFTYPE
 70
     6
  9
$SURFU
 70
     6
  9
$SURFV
 70
     6
  9
$UCSBASE
  2

  9
$UCSNAME
  2

  9
$UCSORG
 10
0.0
 20
0.0
 30
0.0
  9
$UCSXDIR
 10
1.0
 20
0.0
 30
0.0
  9
$UCSYDIR
 10
0.0
 20
1.0
 30
0.0
  9
$UCSORTHOREF
  2

  9
$UCSORTHOVIEW
 70
     0
  9
$UCSORGTOP
 10
0.0
 20
0.0
 30
0.0
  9
$UCSORGBOTTOM
 10
0.0
 20
0.0
 30
0.0
  9
$UCSORGLEFT
 10
0.0
 20
0.0
 30
0.0
  9
$UCSORGRIGHT
 10
0.0
 20
0.0
 30
0.0
  9
$UCSORGFRONT
 10
0.0
 20
0.0
 30
0.0
  9
$UCSORGBACK
 10
0.0
 20
0.0
 30
0.0
  9
$PUCSBASE
  2

  9
$PUCSNAME
  2

  9
$PUCSORG
 10
0.0
 20
0.0
 30
0.0
  9
$PUCSXDIR
 10
1.0
 20
0.0
 30
0.0
  9
$PUCSYDIR
 10
0.0
 20
1.0
 30
0.0
  9
$PUCSORTHOREF
  2

  9
$PUCSORTHOVIEW
 70
     0
  9
$PUCSORGTOP
 10
0.0
 20
0.0
 30
0.0
  9
$PUCSORGBOTTOM
 10
0.0
 20
0.0
 30
0.0
  9
$PUCSORGLEFT
 10
0.0
 20
0.0
 30
0.0
  9
$PUCSORGRIGHT
 10
0.0
 20
0.0
 30
0.0
  9
$PUCSORGFRONT
 10
0.0
 20
0.0
 30
0.0
  9
$PUCSORGBACK
 10
0.0
 20
0.0
 30
0.0
  9
$USERI1
 70
     0
  9
$USERI2
 70
     0
  9
$USERI3
 70
     0
  9
$USERI4
 70
     0
  9
$USERI5
 70
     0
  9
$USERR1
 40
0.0
  9
$USERR2
 40
0.0
  9
$USERR3
 40
0.0
  9
$USERR4
 40
0.0
  9
$USERR5
 40
0.0
  9
$WORLDVIEW
 70
     1
  9
$SHADEDGE
 70
     3
  9
$SHADEDIF
 70
    70
  9
$TILEMODE
 70
     1
  9
$MAXACTVP
 70
    64
  9
$PINSBASE
 10
0.0
 20
0.0
 30
0.0
  9
$PLIMCHECK
 70
     0
  9
$PEXTMIN
 10
1.000000000000000E+20
 20
1.000000000000000E+20
 30
1.000000000000000E+20
  9
$PEXTMAX
 10
-1.000000000000000E+20
 20
-1.000000000000000E+20
 30
-1.000000000000000E+20
  9
$PLIMMIN
 10
0.0
 20
0.0
  9
$PLIMMAX
 10
0.0
 20
0.0
  9
$UNITMODE
 70
     0
  9
$VISRETAIN
 70
     1
  9
$PLINEGEN
 70
     0
  9
$PSLTSCALE
 70
     1
  9
$TREEDEPTH
 70
  3020
  9
$CMLSTYLE
  2
Standard
  9
$CMLJUST
 70
     0
  9
$CMLSCALE
 40
20.0
  9
$PROXYGRAPHICS
 70
     1
  9
$MEASUREMENT
 70
     1
  9
$CELWEIGHT
370
    -1
  9
$ENDCAPS
280
     0
  9
$JOINSTYLE
280
     0
  9
$LWDISPLAY
290
     1
  9
$INSUNITS
 70
     4
  9
$HYPERLINKBASE
  1

  9
$STYLESHEET
  1

  9
$XEDIT
290
     1
  9
$CEPSNTYPE
380
     0
  9
$PSTYLEMODE
290
     1
  9
$FINGERPRINTGUID
  2
{507E82BA-8ECB-4D46-B8A4-B986BA9CD92A}
  9
$VERSIONGUID
  2
{FAEB1C32-E019-11D5-929B-00C0DF256EC4}
  9
$EXTNAMES
290
     1
  9
$PSVPSCALE
 40
0.0
  9
$OLESTARTUP
290
     0
  9
$SORTENTS
280
   127
  9
$INDEXCTL
280
     0
  9
$HIDETEXT
280
     1
  9
$XCLIPFRAME
280
     2
  9
$HALOGAP
280
     0
  9
$OBSCOLOR
 70
   257
  9
$OBSLTYPE
280
     0
  9
$INTERSECTIONDISPLAY
280
     0
  9
$INTERSECTIONCOLOR
 70
   257
  9
$DIMASSOC
280
     2
  9
$PROJECTNAME
  1

  9
$CAMERADISPLAY
290
     0
  9
$LENSLENGTH
 40
50.0
  9
$CAMERAHEIGHT
 40
0.0
  9
$STEPSPERSEC
 40
2.0
  9
$STEPSIZE
 40
6.0
  9
$3DDWFPREC
 40
2.0
  9
$PSOLWIDTH
 40
0.25
  9
$PSOLHEIGHT
 40
4.0
  9
$LOFTANG1
 40
1.570796326794897
  9
$LOFTANG2
 40
1.570796326794897
  9
$LOFTMAG1
 40
0.0
  9
$LOFTMAG2
 40
0.0
  9
$LOFTPARAM
 70
     7
  9
$LOFTNORMALS
280
     1
  9
$LATITUDE
 40
37.795
  9
$LONGITUDE
 40
-122.394
  9
$NORTHDIRECTION
 40
0.0
  9
$TIMEZONE
 70
 -8000
  9
$LIGHTGLYPHDISPLAY
280
     1
  9
$TILEMODELIGHTSYNCH
280
     1
  9
$SOLIDHIST
280
     0
  9
$SHOWHIST
280
     1
  9
$DWFFRAME
280
     2
  9
$DGNFRAME
280
     2
  9
$REALWORLDSCALE
290
     1
  9
$INTERFERECOLOR
 62
   256
  9
$CSHADOW
280
     0
  9
$SHADOWPLANELOCATION
 40
0.0
  0
ENDSEC
  0
SECTION
  2
CLASSES
  0
CLASS
  1
ACDBDICTIONARYWDFLT
  2
AcDbDictionaryWithDefault
  3
ObjectDBX Classes
 90
        0
 91
        3
280
     0
281
     0
  0
CLASS
  1
VISUALSTYLE
  2
AcDbVisualStyle
  3
ObjectDBX Classes
 90
     4095
 91
        3
280
     0
281
     0
  0
CLASS
  1
MATERIAL
  2
AcDbMaterial
  3
ObjectDBX Classes
 90
     1153
 91
        3
280
     0
281
     0
  0
CLASS
  1
SCALE
  2
AcDbScale
  3
ObjectDBX Classes
 90
     1153
 91
        3
280
     0
281
     0
  0
CLASS
  1
TABLESTYLE
  2
AcDbTableStyle
  3
ObjectDBX Classes
 90
     4095
 91
        3
280
     0
281
     0
  0
CLASS
  1
MLEADERSTYLE
  2
AcDbMLeaderStyle
  3
ACDB_MLEADERSTYLE_CLASS
 90
     4095
 91
        3
280
     0
281
     0
  0
CLASS
  1
SUN
  2
AcDbSun
  3
SCENEOE
 90
     1153
 91
        3
280
     0
281
     0
  0
CLASS
  1
ACDBPLACEHOLDER
  2
AcDbPlaceHolder
  3
ObjectDBX Classes
 90
        0
 91
        1
280
     0
281
     0
  0
CLASS
  1
LAYOUT
  2
AcDbLayout
  3
ObjectDBX Classes
 90
        0
 91
        1
280
     0
281
     0
  0
CLASS
  1
DICTIONARYVAR
  2
AcDbDictionaryVar
  3
ObjectDBX Classes
 90
        0
 91
        3
280
     0
281
     0
  0
CLASS
  1
CELLSTYLEMAP
  2
AcDbCellStyleMap
  3
ObjectDBX Classes
 90
     1152
 91
        3
280
     0
281
     0
  0
ENDSEC
  0
SECTION
  2
TABLES
  0
TABLE
  2
VPORT
  5
8
330
0
100
AcDbSymbolTable
 70
     1
  0
VPORT
  5
29
330
8
100
AcDbSymbolTableRecord
100
AcDbViewportTableRecord
  2
*Active
 70
     0
 10
0.0
 20
0.0
 11
1.0
 21
1.0
 12
218.5561142857142
 22
151.0638239285715
 13
0.0
 23
0.0
 14
10.0
 24
10.0
 15
10.0
 25
10.0
 16
0.0
 26
0.0
 36
1.0
 17
0.0
 27
0.0
 37
0.0
 40
347.1817142857142
 41
0.9949832775919732
 42
50.0
 43
0.0
 44
0.0
 50
0.0
 51
0.0
 71
    16
 72
  2000
 73
     1
 74
     3
 75
     0
 76
     0
 77
     0
 78
     0
281
     0
 65
     1
110
0.0
120
0.0
130
0.0
111
1.0
121
0.0
131
0.0
112
0.0
122
1.0
132
0.0
 79
     0
146
0.0
348
B3
 60
     3
 61
     5
292
     1
282
     1
141
0.0
142
0.0
 63
   256
  0
ENDTAB
  0
TABLE
  2
LTYPE
  5
5
330
0
100
AcDbSymbolTable
 70
     6
  0
LTYPE
  5
14
330
5
100
AcDbSymbolTableRecord
100
AcDbLinetypeTableRecord
  2
ByBlock
 70
     0
  3

 72
    65
 73
     0
 40
0.0
  0
LTYPE
  5
15
330
5
100
AcDbSymbolTableRecord
100
AcDbLinetypeTableRecord
  2
ByLayer
 70
     0
  3

 72
    65
 73
     0
 40
0.0
  0
LTYPE
  5
16
330
5
100
AcDbSymbolTableRecord
100
AcDbLinetypeTableRecord
  2
Continuous
 70
     0
  3
Solid line
 72
    65
 73
     0
 40
0.0
  0
LTYPE
  5
6E
330
5
100
AcDbSymbolTableRecord
100
AcDbLinetypeTableRecord
  2
HIDDEN
 70
     0
  3
Hidden __ __ __ __ __ __ __ __ __ __ __ __ __ __
 72
    65
 73
     2
 40
1.905
 49
1.27
 74
     0
 49
-0.635
 74
     0
  0
LTYPE
  5
6F
330
5
100
AcDbSymbolTableRecord
100
AcDbLinetypeTableRecord
  2
PHANTOM
 70
     0
  3
Phantom ______  __  __  ______  __  __  ______
 72
    65
 73
     6
 40
12.7
 49
6.35
 74
     0
 49
-1.27
 74
     0
 49
1.27
 74
     0
 49
-1.27
 74
     0
 49
1.27
 74
     0
 49
-1.27
 74
     0
  0
LTYPE
  5
70
330
5
100
AcDbSymbolTableRecord
100
AcDbLinetypeTableRecord
  2
CENTER
 70
     0
  3
Center ____ _ ____ _ ____ _ ____ _ ____ _ ____
 72
    65
 73
     4
 40
10.16
 49
6.35
 74
     0
 49
-1.27
 74
     0
 49
1.27
 74
     0
 49
-1.27
 74
     0
  0
LTYPE
  5
71
330
5
100
AcDbSymbolTableRecord
100
AcDbLinetypeTableRecord
  2
CENTERX2
 70
     0
  3
Center (2x) ________  __  ________  __  _____
 72
    65
 73
     4
 40
20.32
 49
12.7
 74
     0
 49
-2.54
 74
     0
 49
2.54
 74
     0
 49
-2.54
 74
     0
  0
LTYPE
  5
72
330
5
100
AcDbSymbolTableRecord
100
AcDbLinetypeTableRecord
  2
DOT2
 70
     0
  3
Dot (.5x) ........................................
 72
    65
 73
     2
 40
0.635
 49
0.0
 74
     0
 49
-0.635
 74
     0
  0
ENDTAB
  0
TABLE
  2
LAYER
  5
2
330
0
100
AcDbSymbolTable
 70
     1
  0
LAYER
  5
10
330
2
100
AcDbSymbolTableRecord
100
AcDbLayerTableRecord
  2
0
 70
     0
 62
     7
  6
Continuous
370
    -3
390
F
347
CA
348
0
  0
ENDTAB
  0
TABLE
  2
STYLE
  5
3
330
0
100
AcDbSymbolTable
 70
     2
  0
STYLE
  5
11
330
3
100
AcDbSymbolTableRecord
100
AcDbTextStyleTableRecord
  2
Standard
 70
     0
 40
0.0
 41
1.0
 50
0.0
 71
     0
 42
3.5
  3
txt
  4
bigfont
  0
STYLE
  5
D3
330
3
100
AcDbSymbolTableRecord
100
AcDbTextStyleTableRecord
  2
SLDTEXTSTYLE0
 70
     0
 40
0.0
 41
1.0
 50
0.0
 71
     0
 42
3.5
  3
MSGOTHIC.TTC
  4

1001
ACAD
1000
ＭＳ Ｐゴシック
1071
      306
  0
ENDTAB
  0
TABLE
  2
VIEW
  5
6
330
0
100
AcDbSymbolTable
 70
     0
  0
ENDTAB
  0
TABLE
  2
UCS
  5
7
330
0
100
AcDbSymbolTable
 70
     0
  0
ENDTAB
  0
TABLE
  2
APPID
  5
9
330
0
100
AcDbSymbolTable
 70
     1
  0
APPID
  5
12
330
9
100
AcDbSymbolTableRecord
100
AcDbRegAppTableRecord
  2
ACAD
 70
     0
  0
ENDTAB
  0
TABLE
  2
DIMSTYLE
  5
A
330
0
100
AcDbSymbolTable
 70
     1
100
AcDbDimStyleTable
  0
DIMSTYLE
105
27
330
A
100
AcDbSymbolTableRecord
100
AcDbDimStyleTableRecord
  2
ISO-25
 70
     0
 41
2.5
 42
0.625
 43
3.75
 44
1.25
 73
     0
 74
     0
 77
     1
 78
     8
140
2.5
141
2.5
143
0.03937007874016
147
0.625
171
     3
172
     1
178
     0
271
     2
272
     2
274
     3
278
    44
283
     0
284
     8
340
11
  0
ENDTAB
  0
TABLE
  2
BLOCK_RECORD
  5
1
330
0
100
AcDbSymbolTable
 70
     1
  0
BLOCK_RECORD
  5
1F
330
1
100
AcDbSymbolTableRecord
100
AcDbBlockTableRecord
  2
*Model_Space
340
22
 70
     0
280
     1
281
     0
  0
BLOCK_RECORD
  5
1B
330
1
100
AcDbSymbolTableRecord
100
AcDbBlockTableRecord
  2
*Paper_Space
340
1E
 70
     0
280
     1
281
     0
  0
BLOCK_RECORD
  5
23
330
1
100
AcDbSymbolTableRecord
100
AcDbBlockTableRecord
  2
*Paper_Space0
340
26
 70
     0
280
     1
281
     0
  0
ENDTAB
  0
ENDSEC
  0
SECTION
  2
BLOCKS
  0
BLOCK
  5
20
330
1F
100
AcDbEntity
  8
0
100
AcDbBlockBegin
  2
*Model_Space
 70
     0
 10
0.0
 20
0.0
 30
0.0
  3
*Model_Space
  1

  0
ENDBLK
  5
21
330
1F
100
AcDbEntity
  8
0
100
AcDbBlockEnd
  0
BLOCK
  5
1C
330
1B
100
AcDbEntity
 67
     1
  8
0
100
AcDbBlockBegin
  2
*Paper_Space
 70
     0
 10
0.0
 20
0.0
 30
0.0
  3
*Paper_Space
  1

  0
ENDBLK
  5
1D
330
1B
100
AcDbEntity
 67
     1
  8
0
100
AcDbBlockEnd
  0
BLOCK
  5
24
330
23
100
AcDbEntity
  8
0
100
AcDbBlockBegin
  2
*Paper_Space0
 70
     0
 10
0.0
 20
0.0
 30
0.0
  3
*Paper_Space0
  1

  0
ENDBLK
  5
25
330
23
100
AcDbEntity
  8
0
100
AcDbBlockEnd
  0
ENDSEC
  0
SECTION
  2
ENTITIES
  0
LINE
  5
73
330
1F
100
AcDbEntity
  8
0
  6
Continuous
 62
     7
370
    25
100
AcDbLine
 10
221.4333718908107
 20
139.6267842594966
 30
0.0
 11
235.3803036521235
 21
147.1009224641681
 31
0.0
  0
LINE
  5
74
330
1F
100
AcDbEntity
  8
0
  6
Continuous
 62
     7
370
    25
100
AcDbLine
 10
223.5716160578587
 20
169.1362323443122
 30
0.0
 11
208.7396538102582
 21
161.1878077314852
 31
0.0
  0
LINE
  5
75
330
1F
100
AcDbEntity
  8
0
  6
Continuous
 62
     7
370
    25
100
AcDbLine
 10
238.4630264274055
 20
137.8224314856671
 30
0.0
 11
238.2186167738029
 21
137.9673210130715
 31
0.0
  0
LINE
  5
76
330
1F
100
AcDbEntity
  8
0
  6
Continuous
 62
     7
370
    25
100
AcDbLine
 10
212.5369470072868
 20
177.3963890511911
 30
0.0
 11
212.4981242164711
 21
177.6861663068229
 31
0.0
  0
LINE
  5
77
330
1F
100
AcDbEntity
  8
0
  6
Continuous
 62
     7
370
    25
100
AcDbLine
 10
198.1189442178162
 20
160.601628266353
 30
0.0
 11
197.6359812255079
 21
160.3428091788268
 31
0.0
  0
LINE
  5
78
330
1F
100
AcDbEntity
  8
0
  6
Continuous
 62
     7
370
    25
100
AcDbLine
 10
213.6957965424588
 20
130.3747877778143
 30
0.0
 11
214.1787595347672
 21
130.6336068653405
 31
0.0
  0
LINE
  5
79
330
1F
100
AcDbEntity
  8
0
  6
Continuous
 62
     7
370
    25
100
AcDbLine
 10
207.1413082051529
 20
138.6614923214454
 30
0.0
 11
207.4956543269294
 21
138.8513858357877
 31
0.0
  0
LINE
  5
7A
330
1F
100
AcDbEntity
  8
0
  6
Continuous
 62
     7
370
    25
100
AcDbLine
 10
201.2606671746893
 20
150.4860293022724
 30
0.0
 11
200.9063210529128
 21
150.2961357879302
 31
0.0
  0
LINE
  5
7B
330
1F
100
AcDbEntity
  8
0
  6
Continuous
 62
     7
370
    25
100
AcDbLine
 10
209.7991922244657
 20
135.0938599290568
 30
0.0
 11
210.137266364061
 21
135.2750333144296
 31
0.0
  0
LINE
  5
7C
330
1F
100
AcDbEntity
  8
0
  6
Continuous
 62
     7
370
    25
100
AcDbLine
 10
199.7456216669515
 20
154.6661066206767
 30
0.0
 11
199.4075475273562
 21
154.4849332353039
 31
0.0
  0
LWPOLYLINE
  5
7D
330
1F
100
AcDbEntity
  8
0
  6
Continuous
 62
     7
370
    25
100
AcDbPolyline
 90
       40
 70
   128
 43
0.0
 10
223.5716160578587
 20
169.1362323443122
 10
223.6461069764983
 20
169.1756909958907
 10
224.4310128696978
 20
169.5384433226617
 10
225.2503809737433
 20
169.8231864808942
 10
226.0986142950441
 20
170.0279755601916
 10
226.9699181918494
 20
170.1514108008055
 10
227.8583406274892
 20
170.192650187874
 10
228.7578131235903
 20
170.1514108008055
 10
229.6621913934357
 20
170.0279755601916
 10
230.5652973798784
 20
169.8231864808942
 10
231.4609629897717
 20
169.5384433226617
 10
232.3430680759819
 20
169.1756909958907
 10
233.2055872311808
 20
168.7374074171798
 10
234.0426299855665
 20
168.2265864171484
 10
234.8484782303468
 20
167.6467172747972
 10
235.6176264525662
 20
167.0017613282067
 10
236.3448209293135
 20
166.29612431219
 10
237.0250944140717
 20
165.534626222077
 10
237.6537994849108
 20
164.7224691253127
 10
238.2266408482949
 20
163.8652007281213
 10
238.7397061540806
 20
162.9686770144707
 10
239.1894923290206
 20
162.0390222143828
 10
239.57292409712
 20
161.0825868887305
 10
239.8873823781958
 20
160.1059045240914
 10
240.1307216169625
 20
159.1156464689849
 10
240.3012773920996
 20
158.118577179343
 10
240.3978854676589
 20
157.1215083394953
 10
240.4198850750565
 20
156.1312502843888
 10
240.3671280448474
 20
155.1545679197498
 10
240.2399723498691
 20
154.1981325940974
 10
240.0392865182439
 20
153.2684771193181
 10
239.7664440062273
 20
152.371953490004
 10
239.4233070025021
 20
151.5146852052611
 10
239.012218705841
 20
150.7025285864032
 10
238.5359880193663
 20
149.9410304962902
 10
237.9978684413407
 20
149.2353932553764
 10
237.4015355839029
 20
148.5904377585802
 10
236.7510628376617
 20
148.0105683913318
 10
236.0508940974504
 20
147.4997478410947
 10
235.3803036521235
 20
147.1009224641681
  0
SPLINE
  5
7E
330
1F
100
AcDbEntity
  8
0
  6
Continuous
 62
     7
370
    25
100
AcDbSpline
210
0.0
220
0.0
230
1.0
 70
    11
 71
     3
 72
    26
 73
    22
 74
     0
 42
0.000000001
 43
0.00000001
 40
0.0
 40
0.0
 40
0.0
 40
0.0
 40
0.0529538782046999
 40
0.1058819278979674
 40
0.1594800131301365
 40
0.2135357854995091
 40
0.2668739885849689
 40
0.3194592697980428
 40
0.3723841495057709
 40
0.4262291793951207
 40
0.4801783909316176
 40
0.5332030167770664
 40
0.5857283858618249
 40
0.638944228083304
 40
0.6929701246584604
 40
0.746675834942116
 40
0.7994497198954987
 40
0.8521122631442807
 40
0.9056306541367904
 40
0.9596983885066286
 40
1.0
 40
1.0
 40
1.0
 40
1.0
 10
237.344222797007
 20
159.239296735547
 30
0.0
 10
237.2184029108047
 20
159.1412023455485
 30
0.0
 10
236.966824507661
 20
158.9450614115669
 30
0.0
 10
236.7312395468728
 20
158.3461035947805
 30
0.0
 10
236.612395785996
 20
157.5945800888172
 30
0.0
 10
236.6094082917955
 20
156.746223008196
 30
0.0
 10
236.7035000468372
 20
155.9111307740911
 30
0.0
 10
236.87902194302
 20
155.1842812314136
 30
0.0
 10
237.128665825866
 20
154.6371986369724
 30
0.0
 10
237.4509128180989
 20
154.3282096552482
 30
0.0
 10
237.8345520309704
 20
154.2999138973215
 30
0.0
 10
238.2465600137809
 20
154.5545717358541
 30
0.0
 10
238.6381502841742
 20
155.0557555718368
 30
0.0
 10
238.9540716071579
 20
155.7523956180289
 30
0.0
 10
239.1342152998728
 20
156.57581054271
 30
0.0
 10
239.1321507506454
 20
157.4284355069527
 30
0.0
 10
238.9422560503971
 20
158.2058922531844
 30
0.0
 10
238.5956918713269
 20
158.829504197572
 30
0.0
 10
238.1471997802211
 20
159.2318563316107
 30
0.0
 10
237.7011559546106
 20
159.3708156529651
 30
0.0
 10
237.4510385628499
 20
159.2786550680179
 30
0.0
 10
237.344222797007
 20
159.239296735547
 30
0.0
  0
SPLINE
  5
7F
330
1F
100
AcDbEntity
  8
0
  6
Continuous
 62
     7
370
    25
100
AcDbSpline
210
0.0
220
0.0
230
1.0
 70
    11
 71
     3
 72
    26
 73
    22
 74
     0
 42
0.000000001
 43
0.00000001
 40
0.0
 40
0.0
 40
0.0
 40
0.0
 40
0.0529658260330204
 40
0.1059072328311095
 40
0.1594898520221892
 40
0.2135505958184062
 40
0.2668968679166717
 40
0.3194458345705026
 40
0.3723583831576835
 40
0.4262196726373439
 40
0.4801545601915549
 40
0.5331859334677851
 40
0.5857491689646014
 40
0.6389616752329739
 40
0.6929782598282295
 40
0.7467011220653988
 40
0.7994520663350787
 40
0.8520845477245019
 40
0.9056169546347566
 40
0.9596822847614654
 40
1.0
 40
1.0
 40
1.0
 40
1.0
 10
224.236118634971
 20
168.251507272471
 30
0.0
 10
224.4907030477115
 20
168.2531442910768
 30
0.0
 10
224.9997545002171
 20
168.2564175735613
 30
0.0
 10
225.8559219578045
 20
168.2904401511528
 30
0.0
 10
226.6640706228559
 20
168.3668422365426
 30
0.0
 10
227.3419997035292
 20
168.5077762741782
 30
0.0
 10
227.7995271528982
 20
168.7171684085204
 30
0.0
 10
227.9894597722217
 20
168.9725404185556
 30
0.0
 10
227.8995490580383
 20
169.2328120378234
 30
0.0
 10
227.5375544294961
 20
169.4456526427064
 30
0.0
 10
226.9422611464272
 20
169.558034810125
 30
0.0
 10
226.1904919786114
 20
169.5414542703002
 30
0.0
 10
225.369707550487
 20
169.4035941435397
 30
0.0
 10
224.5587940152657
 20
169.1766862775414
 30
0.0
 10
223.8401644888176
 20
168.909736696297
 30
0.0
 10
223.2994233787984
 20
168.6598695191224
 30
0.0
 10
222.9982682238285
 20
168.4681151195695
 30
0.0
 10
222.9623533171986
 20
168.3447898067664
 30
0.0
 10
223.2019345452634
 20
168.27981214796
 30
0.0
 10
223.6521047133279
 20
168.2548440011666
 30
0.0
 10
224.0613155612348
 20
168.2525059994031
 30
0.0
 10
224.236118634971
 20
168.251507272471
 30
0.0
  0
LINE
  5
80
330
1F
100
AcDbEntity
  8
0
  6
Continuous
 62
     7
370
    25
100
AcDbLine
 10
236.4891597119352
 20
136.8810236533046
 30
0.0
 11
220.6567207326928
 21
139.6157324264983
 31
0.0
  0
LINE
  5
81
330
1F
100
AcDbEntity
  8
0
  6
Continuous
 62
     7
370
    25
100
AcDbLine
 10
220.6866015218445
 20
139.7557716574318
 30
0.0
 11
236.3047647575571
 21
137.0580749610914
 31
0.0
  0
LINE
  5
82
330
1F
100
AcDbEntity
  8
0
  6
Continuous
 62
     7
370
    25
100
AcDbLine
 10
236.3047647575571
 20
137.0580749610914
 30
0.0
 11
237.9351200816175
 21
137.931779746007
 31
0.0
  0
LINE
  5
83
330
1F
100
AcDbEntity
  8
0
  6
Continuous
 62
     7
370
    25
100
AcDbLine
 10
238.1795297352201
 20
137.7868902186025
 30
0.0
 11
237.9351200816175
 21
137.931779746007
 31
0.0
  0
LINE
  5
84
330
1F
100
AcDbEntity
  8
0
  6
Continuous
 62
     7
370
    25
100
AcDbLine
 10
238.1795297352201
 20
137.7868902186025
 30
0.0
 11
236.4891597119352
 21
136.8810236533046
 31
0.0
  0
LINE
  5
85
330
1F
100
AcDbEntity
  8
0
  6
Continuous
 62
     7
370
    25
100
AcDbLine
 10
236.4891597119352
 20
136.8810236533046
 30
0.0
 11
235.5263381116083
 21
134.3714739235281
 31
0.0
  0
LINE
  5
86
330
1F
100
AcDbEntity
  8
0
  6
Continuous
 62
     7
370
    25
100
AcDbLine
 10
235.5263381116083
 20
134.3714739235281
 30
0.0
 11
219.8671738650362
 21
137.0762543593105
 31
0.0
  0
LINE
  5
87
330
1F
100
AcDbEntity
  8
0
  6
Continuous
 62
     7
370
    25
100
AcDbLine
 10
206.5239530746681
 20
161.7917320530773
 30
0.0
 11
210.7189131845075
 21
176.323502120644
 31
0.0
  0
LINE
  5
88
330
1F
100
AcDbEntity
  8
0
  6
Continuous
 62
     7
370
    25
100
AcDbLine
 10
210.6200756944673
 20
176.5811175958935
 30
0.0
 11
206.3595062006148
 21
161.8220725893769
 31
0.0
  0
LINE
  5
89
330
1F
100
AcDbEntity
  8
0
  6
Continuous
 62
     7
370
    25
100
AcDbLine
 10
212.3104457177521
 20
177.4869841611914
 30
0.0
 11
210.6200756944673
 21
176.5811175958935
 31
0.0
  0
LINE
  5
8A
330
1F
100
AcDbEntity
  8
0
  6
Continuous
 62
     7
370
    25
100
AcDbLine
 10
212.3492685085679
 20
177.1972069055595
 30
0.0
 11
212.3104457177521
 21
177.4869841611914
 31
0.0
  0
LINE
  5
8B
330
1F
100
AcDbEntity
  8
0
  6
Continuous
 62
     7
370
    25
100
AcDbLine
 10
210.7189131845075
 20
176.323502120644
 30
0.0
 11
212.3492685085679
 21
177.1972069055595
 31
0.0
  0
LINE
  5
8C
330
1F
100
AcDbEntity
  8
0
  6
Continuous
 62
     7
370
    25
100
AcDbLine
 10
208.0219990572561
 20
176.5811175958935
 30
0.0
 11
203.8236940231143
 21
162.0377618523737
 31
0.0
  0
LINE
  5
8D
330
1F
100
AcDbEntity
  8
0
  6
Continuous
 62
     7
370
    25
100
AcDbLine
 10
208.0219990572561
 20
176.5811175958935
 30
0.0
 11
210.6200756944673
 21
176.5811175958935
 31
0.0
  0
LWPOLYLINE
  5
8E
330
1F
100
AcDbEntity
  8
0
  6
Continuous
 62
     7
370
    25
100
AcDbPolyline
 90
        9
 70
   128
 43
0.0
 10
238.4225645868229
 20
136.9203437439596
 10
238.5025611207647
 20
137.1576786266403
 10
238.5516466190579
 20
137.3709741113458
 10
238.5679316038115
 20
137.5520320578798
 10
238.5507876554784
 20
137.6938949276063
 10
238.500878985345
 20
137.7911102612341
 10
238.4201177693
 20
137.839944193719
 10
238.3116131444343
 20
137.8385190934601
 10
238.1795297352201
 20
137.7868902186025
  0
ARC
  5
8F
330
1F
100
AcDbEntity
  8
0
  6
Continuous
 62
     7
370
    25
100
AcDbCircle
 10
235.1313545364845
 20
138.0718643684167
 30
0.0
 40
3.486841456676526
100
AcDbArc
 50
306.7313519387249
 51
340.7162024445356
  0
LINE
  5
90
330
1F
100
AcDbEntity
  8
0
  6
Continuous
 62
     7
370
    25
100
AcDbLine
 10
237.2167081348931
 20
135.277340488826
 30
0.0
 11
235.5263381116083
 21
134.3714739235281
 31
0.0
  0
ARC
  5
91
330
1F
100
AcDbEntity
  8
0
  6
Continuous
 62
     7
370
    25
100
AcDbCircle
 10
211.6651410814153
 20
172.7763584807869
 30
0.0
 40
5.099344348863361
100
AcDbArc
 50
89.20547926191819
 51
112.5162659961125
  0
LWPOLYLINE
  5
92
330
1F
100
AcDbEntity
  8
0
  6
Continuous
 62
     7
370
    25
100
AcDbPolyline
 90
        9
 70
   128
 43
0.0
 10
212.3104457177521
 20
177.4869841611914
 10
212.4268167436026
 20
177.5627238077611
 10
212.4887949461434
 20
177.635552847796
 10
212.4939979799932
 20
177.7026722781424
 10
212.4422253435563
 20
177.7615031688361
 10
212.3354683940065
 20
177.8097845269749
 10
212.1778271753623
 20
177.8456605546529
 10
211.9753619013095
 20
177.867753203211
 10
211.7358514378148
 20
177.8752125514368
  0
LINE
  5
93
330
1F
100
AcDbEntity
  8
0
  6
Continuous
 62
     7
370
    25
100
AcDbLine
 10
209.712369080541
 20
177.4869841611914
 30
0.0
 11
208.0219990572561
 21
176.5811175958935
 31
0.0
  0
ARC
  5
94
330
1F
100
AcDbEntity
  8
0
  6
Continuous
 62
     7
370
    25
100
AcDbCircle
 10
238.1068608230836
 20
137.7103145395895
 30
0.0
 40
0.280252957045708
100
AcDbArc
 50
66.49880840942167
 51
127.7926851380971
  0
LINE
  5
95
330
1F
100
AcDbEntity
  8
0
  6
Continuous
 62
     7
370
    25
100
AcDbLine
 10
194.4257765749309
 20
134.3714739235281
 30
0.0
 11
195.3228110465333
 21
135.365210738437
 31
0.0
  0
LINE
  5
96
330
1F
100
AcDbEntity
  8
0
  6
Continuous
 62
     7
370
    25
100
AcDbLine
 10
194.4257765749309
 20
134.3714739235281
 30
0.0
 11
192.7905223445956
 21
136.8810236533046
 31
0.0
  0
LINE
  5
97
330
1F
100
AcDbEntity
  8
0
  6
Continuous
 62
     7
370
    25
100
AcDbLine
 10
192.7905223445956
 20
136.8810236533046
 30
0.0
 11
193.6132335044388
 21
137.7924226832128
 31
0.0
  0
LINE
  5
98
330
1F
100
AcDbEntity
  8
0
  6
Continuous
 62
     7
370
    25
100
AcDbLine
 10
194.6913795089962
 20
134.548525231315
 30
0.0
 11
195.5998730632564
 21
135.0353854597008
 31
0.0
  0
LINE
  5
99
330
1F
100
AcDbEntity
  8
0
  6
Continuous
 62
     7
370
    25
100
AcDbLine
 10
195.620312293257
 20
135.0116236856393
 30
0.0
 11
194.4257765749309
 21
134.3714739235281
 31
0.0
  0
LINE
  5
9A
330
1F
100
AcDbEntity
  8
0
  6
Continuous
 62
     7
370
    25
100
AcDbLine
 10
195.3733238600217
 20
135.3039833008363
 30
0.0
 11
194.6913795089962
 21
134.548525231315
 31
0.0
  0
ARC
  5
9B
330
1F
100
AcDbEntity
  8
0
  6
Continuous
 62
     7
370
    25
100
AcDbCircle
 10
212.2852290544319
 20
177.4455584908086
 30
0.0
 40
0.2564752650486558
100
AcDbArc
 50
284.4592022471697
 51
348.9472763532423
  0
LWPOLYLINE
  5
9C
330
1F
100
AcDbEntity
  8
0
  6
Continuous
 62
     7
370
    25
100
AcDbPolyline
 90
       85
 70
   128
 43
0.0
 10
217.3719392356051
 20
149.1048295644275
 10
216.9274224389226
 20
150.1543142792086
 10
216.4172260943348
 20
151.1755331493739
 10
215.8442010847391
 20
152.1627750387647
 10
215.2115551256897
 20
153.1105189336349
 10
214.5228244749449
 20
154.0134645005493
 10
213.7818617899438
 20
154.8665625177761
 10
212.9928115512874
 20
155.6650417926631
 10
212.1600838109779
 20
156.4044365428629
 10
211.2883361492672
 20
157.0806127092977
 10
210.3824467965727
 20
157.6897879720041
 10
209.447477504324
 20
158.2285560390228
 10
208.4886599633591
 20
158.6939037385813
 10
207.5113555459412
 20
159.0832285610698
 10
206.5210298669639
 20
159.394353952046
 10
205.5232200027975
 20
159.6255392077095
 10
204.5235079817446
 20
159.7754907197578
 10
203.5274831635925
 20
159.8433718708604
 10
202.5407165505672
 20
159.8288021350702
 10
201.5687263096646
 20
159.7318615757661
 10
200.6169478515239
 20
159.5530944440073
 10
199.6907043867855
 20
159.2935001826476
 10
198.795175670015
 20
158.9545289283934
 10
197.9353693857658
 20
158.5380783632432
 10
197.1160949265297
 20
158.0464757227175
 10
196.3419333858913
 20
157.4824714987388
 10
195.6172140574306
 20
156.8492191988901
 10
194.9459901600837
 20
156.1502605032039
 10
194.3320154044077
 20
155.3895036740376
 10
193.7787233073031
 20
154.5712042149201
 10
193.2892081585404
 20
153.699937433102
 10
192.8662073662787
 20
152.7805765120848
 10
192.5120867725638
 20
151.8182624316301
 10
192.22882668874
 20
150.8183769801031
 10
192.0180110946398
 20
149.7865119997902
 10
191.8808193553448
 20
148.7284379013008
 10
191.8180179454788
 20
147.6500721217439
 10
191.8299585465217
 20
146.5574451652617
 10
191.9165746498037
 20
145.4566672620296
 10
192.0773813932277
 20
144.3538949710322
 10
192.311479605732
 20
143.2552949716251
 10
192.6175601762123
 20
142.1670114534504
 10
192.9939118178462
 20
141.0951292333078
 10
193.438428755905
 20
140.0456449683211
 10
193.9486259503544
 20
139.0244257748662
 10
194.5216499310491
 20
138.0371840400921
 10
195.1542960390074
 20
137.0894405387918
 10
195.8430263166082
 20
136.1864947469803
 10
196.5839890218881
 20
135.3333969546507
 10
197.3730407011604
 20
134.5349167801752
 10
198.2057682906419
 20
133.7955215801811
 10
199.0775149343146
 20
133.1193458635405
 10
199.9834053763106
 20
132.5101715004227
 10
200.9183739825323
 20
131.9714025338154
 10
201.8771913427143
 20
131.5060561836397
 10
202.8544958806542
 20
131.1167304615628
 10
203.8448218423839
 20
130.805605970175
 10
204.8426313032758
 20
130.5744207145115
 10
205.8423434448507
 20
130.4244683028747
 10
206.8383682630028
 20
130.3565871517721
 10
207.8251348760282
 20
130.3711568875623
 10
208.7971252374528
 20
130.4680965472779
 10
209.7489039783459
 20
130.6468645786252
 10
210.6751474430843
 20
130.9064588399849
 10
211.5706766836513
 20
131.2454291946506
 10
212.4304819805685
 20
131.6618811091836
 10
213.2497573668756
 20
132.1534828501208
 10
214.0239187058767
 20
132.7174870740994
 10
214.7486379740764
 20
133.3507398237424
 10
215.4198618210141
 20
134.0496985194286
 10
216.0338358583574
 20
134.810455348595
 10
216.5871280590312
 20
135.6287552575067
 10
217.0766430061567
 20
136.5000220393248
 10
217.4996444485259
 20
137.4193826229963
 10
217.8537642281592
 20
138.3816967596753
 10
218.1370247152575
 20
139.3815822112023
 10
218.3478409218021
 20
140.4134471352909
 10
218.485032414264
 20
141.471521571126
 10
218.5478338542605
 20
142.5498871257857
 10
218.5358932833481
 20
143.6425138573708
 10
218.4492775833407
 20
144.7432917606029
 10
218.2884696300931
 20
145.8460640516003
 10
218.0543714175888
 20
146.9446640510075
 10
217.7482915933965
 20
148.0329480189764
 10
217.3719392356051
 20
149.1048295644275
  0
LWPOLYLINE
  5
9D
330
1F
100
AcDbEntity
  8
0
  6
Continuous
 62
     7
370
    25
100
AcDbPolyline
 90
       90
 70
   128
 43
0.0
 10
219.2376680696241
 20
149.8179730105209
 10
219.6352263001316
 20
148.6920899529082
 10
219.9631910019396
 20
147.5496006035278
 10
220.2199253181018
 20
146.3961967714413
 10
220.4041545447322
 20
145.2376243534704
 10
220.5149568870766
 20
144.0796560091956
 10
220.5517821655353
 20
142.9280599002549
 10
220.5144471247885
 20
141.7885745018647
 10
220.4031367271761
 20
140.6668748682503
 10
220.2184055526498
 20
139.5685501429325
 10
219.9611755043905
 20
138.4990725229237
 10
219.6327265196842
 20
137.4637702710718
 10
219.2346954668102
 20
136.4677998288162
 10
218.7690662533078
 20
135.516123326474
 10
218.2381570696115
 20
134.6134833947618
 10
217.644612713026
 20
133.7643761771398
 10
216.9913927213278
 20
132.9730315388639
 10
216.2817482146812
 20
132.2433932760383
 10
215.5192155916665
 20
131.5790939271368
 10
214.7075953921718
 20
130.9834439779403
 10
213.8509291393091
 20
130.4594120705894
 10
212.9534853778304
 20
130.0096088109905
 10
212.0197363584159
 20
129.6362741745771
 10
211.0543320612728
 20
129.3412667112468
 10
210.0620821275953
 20
129.1260599470074
 10
209.047931088383
 20
128.9917225930297
 10
208.0169307841472
 20
128.938925742355
 10
206.9742184212542
 20
128.9679320748333
 10
205.9249875361606
 20
129.0785958571233
 10
204.8744653332277
 20
129.2703665410461
 10
203.827886634109
 20
129.5422905627627
 10
202.7904644387117
 20
129.8930113427736
 10
201.7673672676141
 20
130.3207818801587
 10
200.7636928310027
 20
130.8234701501079
 10
199.7844404923887
 20
131.398573497338
 10
198.8344893845674
 20
132.0432258328005
 10
197.91857197914
 20
132.7542156254525
 10
197.0412513643201
 20
133.5280002956731
 10
196.2068981776775
 20
134.3607260062106
 10
195.419669281203
 20
135.2482438547767
 10
194.6834863937674
 20
136.1861314641705
 10
194.0020176079127
 20
137.1697163715806
 10
193.3786571171141
 20
138.1940994178865
 10
192.816511636477
 20
139.2541763377836
 10
192.3183804150527
 20
140.3446665466161
 10
191.8867464564227
 20
141.4601365296781
 10
191.5237591128925
 20
142.5950304282243
 10
191.2312270396955
 20
143.7436925291829
 10
191.010608029575
 20
144.9004009997249
 10
190.8630007988739
 20
146.0593930757439
 10
190.7891405467726
 20
147.2148951980706
 10
190.789395712773
 20
148.3611502250269
 10
190.86376474576
 20
149.4924475686405
 10
191.0118775802573
 20
150.6031513067871
 10
191.2329955372484
 20
151.6877280142102
 10
191.5260177225849
 20
152.7407742561955
 10
191.8894838185231
 20
153.7570439135726
 10
192.3215833369278
 20
154.7314739334361
 10
192.8201634836141
 20
155.659209911195
 10
193.3827403334874
 20
156.5356295360983
 10
194.0065113644157
 20
157.3563664303308
 10
194.688368780935
 20
158.1173324138298
 10
195.4249155931878
 20
158.8147361707463
 10
196.2124824254087
 20
159.445102590599
 10
197.0471456913635
 20
160.0052925592214
 10
197.924746928136
 20
160.4925142036186
 10
198.8409145675934
 20
160.9043404339435
 10
199.7910836214757
 20
161.2387192887652
 10
200.7705206496116
 20
161.4939847301309
 10
201.7743460257352
 20
161.6688665390398
 10
202.7975592232577
 20
161.7624912150318
 10
203.8350617277035
 20
161.7743945704267
 10
204.8816861095802
 20
161.7045154332046
 10
205.9322163132292
 20
161.5532037433029
 10
206.9814203174567
 20
161.3212115567303
 10
208.0240707442423
 20
161.0096957443331
 10
209.0549719940492
 20
160.6202080963212
 10
210.0689902457646
 20
160.1546881255597
 10
211.0610704313341
 20
159.6154567704494
 10
212.0262748806462
 20
159.0051988529503
 10
212.9597891852631
 20
158.3269554320794
 10
213.85696828303
 20
157.5841049125515
 10
214.7133383261658
 20
156.7803491011569
 10
215.5246350619478
 20
155.919691616637
 10
216.2868158916097
 20
155.0064201228105
 10
216.9960837632742
 20
154.0450845135522
 10
217.6489046878206
 20
153.0404745355277
 10
218.2420272256492
 20
151.9975947402758
 10
218.7724953402715
 20
150.9216407856731
 10
219.2376680696241
 20
149.8179730105209
  0
LWPOLYLINE
  5
9E
330
1F
100
AcDbEntity
  8
0
  6
Continuous
 62
     7
370
    25
100
AcDbPolyline
 90
       26
 70
   128
 43
0.0
 10
219.7206310619324
 20
150.0767920980472
 10
219.2554583325798
 20
151.1804598731994
 10
218.7249902179576
 20
152.2564138278021
 10
218.1318676801289
 20
153.299293623054
 10
217.4790467555826
 20
154.3039036010785
 10
216.769778883918
 20
155.2652392103368
 10
216.0075980542561
 20
156.1785107041632
 10
215.1963013184741
 20
157.0391681886832
 10
214.3399312753383
 20
157.8429240000777
 10
213.4427521775714
 20
158.5857745196056
 10
212.5092378729545
 20
159.2640179404765
 10
211.5440334236425
 20
159.8742758579756
 10
210.551953238073
 20
160.413507213086
 10
209.5379349863575
 20
160.8790271838475
 10
208.5070337365506
 20
161.2685148318594
 10
207.4643833097651
 20
161.5800306442565
 10
206.4151793055375
 20
161.8120228308292
 10
205.3646491018886
 20
161.9633345207309
 10
204.3180247200118
 20
162.0332136579529
 10
203.280522215566
 20
162.021310302558
 10
202.2573090180436
 20
161.927685626566
 10
201.2534836419199
 20
161.7528038176572
 10
200.274046613784
 20
161.4975383762915
 10
199.3238775599017
 20
161.1631595214698
 10
198.4077099204444
 20
160.7513332911448
 10
198.1189442178162
 20
160.601628266353
  0
LWPOLYLINE
  5
9F
330
1F
100
AcDbEntity
  8
0
  6
Continuous
 62
     7
370
    25
100
AcDbPolyline
 90
       22
 70
   128
 43
0.0
 10
214.1787595347672
 20
130.6336068653405
 10
214.3338921316175
 20
130.7182311581156
 10
215.1905583844801
 20
131.2422630654666
 10
216.0021785839748
 20
131.8379130146631
 10
216.7647112069895
 20
132.5022123635646
 10
217.4743557136362
 20
133.2318506263902
 10
218.1275757053344
 20
134.023195264666
 10
218.7211200619199
 20
134.8723024822881
 10
219.2520292456161
 20
135.7749424140002
 10
219.7176584591186
 20
136.7266189163424
 10
220.1156895119925
 20
137.7225893585981
 10
220.4441384966989
 20
138.7578916104499
 10
220.7013685449582
 20
139.8273692304587
 10
220.8860997194844
 20
140.9256939557765
 10
220.9974101170968
 20
142.0473935893909
 10
221.0347451578436
 20
143.1868789877812
 10
220.9979198793849
 20
144.3384750967219
 10
220.8871175370405
 20
145.4964434409966
 10
220.7028883104101
 20
146.6550158589675
 10
220.446153994248
 20
147.8084196910541
 10
220.11818929244
 20
148.9509090404345
 10
219.7206310619324
 20
150.0767920980472
  0
LWPOLYLINE
  5
A0
330
1F
100
AcDbEntity
  8
0
  6
Continuous
 62
     7
370
    25
100
AcDbPolyline
 90
       56
 70
   128
 43
0.0
 10
209.340845121712
 20
141.1412674701411
 10
209.0480357056404
 20
140.5438615241391
 10
208.6897273286616
 20
139.9977528147365
 10
208.2705924244314
 20
139.5100624847166
 10
207.7960938566186
 20
139.087147026614
 10
207.2724179756145
 20
138.7345200185135
 10
206.7063917482021
 20
138.45677835779
 10
206.1053938056054
 20
138.2575437878551
 10
205.477259567547
 20
138.139412521199
 10
204.8301771419071
 20
138.1039255529691
 10
204.1725825012508
 20
138.1515443720799
 10
203.5130484201088
 20
138.281649162036
 10
202.8601732546309
 20
138.4925441984635
 10
202.2224680766406
 20
138.7814785396451
 10
201.6082459954988
 20
139.1446865080053
 10
201.0255145068278
 20
139.5774326695356
 10
200.4818704323208
 20
140.074076604169
 10
199.9844007093322
 20
140.6281421740967
 10
199.5395912968736
 20
141.2324074826203
 10
199.1532405176302
 20
141.8789948330053
 10
198.8303853927802
 20
142.5594750807496
 10
198.5752342901335
 20
143.2649760340016
 10
198.3911138537099
 20
143.9863016490394
 10
198.280424017362
 20
144.7140480771918
 10
198.2446080646787
 20
145.4387278080543
 10
198.2841332342875
 20
146.1508933629117
 10
198.398483826666
 20
146.8412609881609
 10
198.5861693711854
 20
147.5008303005852
 10
198.8447425621326
 20
148.1210032579365
 10
199.1708332608489
 20
148.6936945834274
 10
199.5601894474131
 20
149.2114384794202
 10
200.0077364355973
 20
149.6674854456422
 10
200.5076389061394
 20
150.0558901015156
 10
201.0533796014887
 20
150.3715890286775
 10
201.6378456769424
 20
150.6104666166427
 10
202.2534154718315
 20
150.7694087429388
 10
202.8920655873758
 20
150.8463433459534
 10
203.5454696970989
 20
150.8402674547588
 10
204.2051097067038
 20
150.7512603034258
 10
204.8623855953913
 20
150.5804822065379
 10
205.5087303439319
 20
150.3301595473082
 10
206.1357170767222
 20
150.003555639344
 10
206.7351712124448
 20
149.604928284342
 10
207.2992787418768
 20
149.1394740959916
 10
207.8206863778899
 20
148.6132612487045
 10
208.2925945461415
 20
148.033149442348
 10
208.7088547356224
 20
147.4067014052236
 10
209.0640367797965
 20
146.7420840517777
 10
209.353511800581
 20
146.0479610942206
 10
209.5735057469064
 20
145.3333823931384
 10
209.7211527363116
 20
144.6076627379383
 10
209.7945254214701
 20
143.8802635509575
 10
209.7926663208928
 20
143.1606673948636
 10
209.7156042701823
 20
142.4582551788206
 10
209.5643385510657
 20
141.7821838144492
 10
209.340845121712
 20
141.1412674701411
  0
LWPOLYLINE
  5
A1
330
1F
100
AcDbEntity
  8
0
  6
Continuous
 62
     7
370
    25
100
AcDbPolyline
 90
        3
 70
   128
 43
0.0
 10
201.5989162077438
 20
150.6499514241517
 10
201.4077257232651
 20
150.5614825430197
 10
201.2606671746893
 20
150.4860293022724
  0
LWPOLYLINE
  5
A2
330
1F
100
AcDbEntity
  8
0
  6
Continuous
 62
     7
370
    25
100
AcDbPolyline
 90
        3
 70
   128
 43
0.0
 10
207.4956543269294
 20
138.8513858357877
 10
207.626764097391
 20
138.9244135328557
 10
207.8194608084293
 20
139.0422578307716
  0
SPLINE
  5
A3
330
1F
100
AcDbEntity
  8
0
  6
Continuous
 62
     7
370
    25
100
AcDbSpline
210
0.0
220
0.0
230
1.0
 70
     8
 71
     3
 72
    15
 73
    11
 74
     0
 42
0.000000001
 43
0.00000001
 40
0.0
 40
0.0
 40
0.0
 40
0.0
 40
0.143721974500868
 40
0.2918302681146152
 40
0.4441860947121827
 40
0.5632274587902288
 40
0.6823470197885091
 40
0.8039214259884137
 40
0.9255756406538221
 40
1.0
 40
1.0
 40
1.0
 40
1.0
 10
198.7548204599162
 20
140.3743133756093
 30
0.0
 10
198.5774269610521
 20
140.6440635761504
 30
0.0
 10
198.2172260069873
 20
141.1917966115562
 30
0.0
 10
197.7806469068366
 20
142.0935079351761
 30
0.0
 10
197.4571736402158
 20
142.9772023378855
 30
0.0
 10
197.2411177755116
 20
143.8185563275406
 30
0.0
 10
197.1110741642492
 20
144.6005067665753
 30
0.0
 10
197.0550349793877
 20
145.3860349066246
 30
0.0
 10
197.060646020453
 20
146.0693495537454
 30
0.0
 10
197.1150402647736
 20
146.4775355850663
 30
0.0
 10
197.1356863593614
 20
146.6324682901221
 30
0.0
  0
SPLINE
  5
A4
330
1F
100
AcDbEntity
  8
0
  6
Continuous
 62
     7
370
    25
100
AcDbSpline
210
0.0
220
0.0
230
1.0
 70
     8
 71
     3
 72
    14
 73
    10
 74
     0
 42
0.000000001
 43
0.00000001
 40
0.0
 40
0.0
 40
0.0
 40
0.0
 40
0.131350152486807
 40
0.262786261621654
 40
0.391399590922662
 40
0.5200974119907769
 40
0.6846290444433031
 40
0.8446837057409385
 40
1.0
 40
1.0
 40
1.0
 40
1.0
 10
203.5150608568803
 20
136.9872771089361
 30
0.0
 10
203.2768544644284
 20
137.052897980313
 30
0.0
 10
202.8002857952515
 20
137.1841826659188
 30
0.0
 10
202.1049019805212
 20
137.4784034981708
 30
0.0
 10
201.4337651140904
 20
137.8372057887505
 30
0.0
 10
200.7343893448703
 20
138.3023770275271
 30
0.0
 10
200.0279580229797
 20
138.8876957906991
 30
0.0
 10
199.3383900121002
 20
139.5923496792616
 30
0.0
 10
198.9473853962367
 20
140.1162827966859
 30
0.0
 10
198.7548204599162
 20
140.3743133756093
 30
0.0
  0
LWPOLYLINE
  5
A5
330
1F
100
AcDbEntity
  8
0
  6
Continuous
 62
     7
370
    25
100
AcDbPolyline
 90
       57
 70
   128
 43
0.0
 10
198.3743595307195
 20
146.9392934230402
 10
198.5678720473866
 20
147.5881614552393
 10
198.8299957758477
 20
148.1979277476082
 10
199.1574349731572
 20
148.7609239826419
 10
199.5460718400639
 20
149.2700701737323
 10
199.9910187401081
 20
149.7189634995357
 10
200.4866803829898
 20
150.101958985818
 10
201.0268234053932
 20
150.4142401231549
 10
201.6046561149904
 20
150.6518798474372
 10
202.2129102256907
 20
150.8118896675957
 10
202.8439382354437
 20
150.8922573885804
 10
203.4898036070708
 20
150.8919723314658
 10
204.1423839099661
 20
150.811038094606
 10
204.793474071316
 20
150.6504724569992
 10
205.4348848709443
 20
150.4122946224036
 10
206.0585503852324
 20
150.0994998481297
 10
206.6566282274757
 20
149.7160216201538
 10
207.2215964601796
 20
149.2666825482352
 10
207.7463513278532
 20
148.7571331165873
 10
208.2242924695673
 20
148.1937815440853
 10
208.6494112925634
 20
147.5837120903826
 10
209.0163601086519
 20
146.9345964464413
 10
209.3205237876223
 20
146.2545983781477
 10
209.5580790250634
 20
145.552268474455
 10
209.726037418941
 20
144.8364393453196
 10
209.8222880177771
 20
144.1161127233415
 10
209.8456187780318
 20
143.4003474649916
 10
209.7957368904756
 20
142.6981439534869
 10
209.673270639352
 20
142.0183338991955
 10
209.4797572860053
 20
141.3694660918935
 10
209.2176331542697
 20
140.7596997995247
 10
208.8901938966992
 20
140.1967040142852
 10
208.5015578664721
 20
139.6875575982976
 10
208.0566106234143
 20
139.2386638227
 10
207.5609489579348
 20
138.8556685050906
 10
207.0208059656619
 20
138.5433871428566
 10
206.4429731461354
 20
138.3057482390973
 10
205.8347190342581
 20
138.1457384277238
 10
205.203691107364
 20
138.0653700882721
 10
204.5578257206716
 20
138.0656552578352
 10
203.9052454253089
 20
138.1465894384708
 10
203.2541552479523
 20
138.3071551955542
 10
202.6127444586813
 20
138.5453329528414
 10
201.9890789104964
 20
138.8581279801246
 10
201.3910010456552
 20
139.2416063767732
 10
200.8260324096769
 20
139.6909454486919
 10
200.3012780657997
 20
140.2004939807513
 10
199.8233364605501
 20
140.7638460030475
 10
199.3982180408285
 20
141.3739154567502
 10
199.0312695677536
 20
142.0230315504858
 10
198.7271050822341
 20
142.7030296187794
 10
198.4895498447931
 20
143.4053595224721
 10
198.3215910476409
 20
144.1211886516074
 10
198.2253413156149
 20
144.8415148237914
 10
198.2020104950992
 20
145.5572805319355
 10
198.2518925031773
 20
146.2594831438516
 10
198.3743595307195
 20
146.9392934230402
  0
LWPOLYLINE
  5
A6
330
1F
100
AcDbEntity
  8
0
  6
Continuous
 62
     7
370
    25
100
AcDbPolyline
 90
        3
 70
   128
 43
0.0
 10
200.8854088115067
 20
150.2848594277072
 10
201.0662357938421
 20
150.4125417944319
 10
201.1779720015575
 20
150.4852523303197
  0
LINE
  5
A7
330
1F
100
AcDbEntity
  8
0
  6
Continuous
 62
     7
370
    25
100
AcDbLine
 10
207.4492130000246
 20
138.7829582322925
 30
0.0
 11
207.1203376797719
 21
138.6503228998086
 31
0.0
  0
LWPOLYLINE
  5
A8
330
1F
100
AcDbEntity
  8
0
  6
Continuous
 62
     7
370
    25
100
AcDbPolyline
 90
       73
 70
   128
 43
0.0
 10
214.129650274107
 20
144.7893965821803
 10
213.9693325000712
 20
145.7154424579933
 10
213.7377357181845
 20
146.6344405074882
 10
213.4366196369307
 20
147.5393966547614
 10
213.0682764930332
 20
148.4234236500468
 10
212.6355127393613
 20
149.2797934707479
 10
212.141617971173
 20
150.1019886542076
 10
211.5903518337133
 20
150.8837518594144
 10
210.9859118588765
 20
151.619133292184
 10
210.3328967073841
 20
152.302536303054
 10
209.6362762927152
 20
152.9287597803922
 10
208.9013525767153
 20
153.4930379290774
 10
208.1337192944565
 20
153.9910760010313
 10
207.3392163307929
 20
154.4190838048904
 10
206.523892900604
 20
154.7738037057001
 10
205.6939524947808
 20
155.0525362631865
 10
204.8557122908075
 20
155.253160247602
 10
204.0155518140066
 20
155.3741486074212
 10
203.1798653371978
 20
155.4145806137864
 10
202.3550125838429
 20
155.3741486074212
 10
201.5472708403491
 20
155.253160247602
 10
200.7627876709823
 20
155.0525362631865
 10
200.0075338321163
 20
154.7738037057001
 10
199.2872569096141
 20
154.4190838048904
 10
198.6074390978978
 20
153.9910760010313
 10
197.97325390827
 20
153.4930379290774
 10
197.3895278648796
 20
152.9287597803922
 10
196.8607035252449
 20
152.302536303054
 10
196.3908054569828
 20
151.619133292184
 10
195.9834100407296
 20
150.8837518594144
 10
195.6416177309637
 20
150.1019886542076
 10
195.3680297502507
 20
149.2797934707479
 10
195.1647283130206
 20
148.4234236500468
 10
195.0332606165055
 20
147.5393966547614
 10
194.9746272388795
 20
146.6344405074882
 10
194.989274410447
 20
145.7154424579933
 10
195.0770906623339
 20
144.7893965821803
 10
195.2374076550253
 20
143.8633507063673
 10
195.4690052084047
 20
142.9443531066667
 10
195.7701208850087
 20
142.0393967344964
 10
196.1384629612587
 20
141.1553692894167
 10
196.5712279702377
 20
140.2989996936128
 10
197.0651224788468
 20
139.4768045663773
 10
197.6163875968213
 20
138.695041445507
 10
198.2208278477498
 20
137.9596602095223
 10
198.8738432008794
 20
137.2762571986524
 10
199.570463600483
 20
136.6500338337628
 10
200.3053875783812
 20
136.0857552352832
 10
201.0730215767975
 20
135.5877178380208
 10
201.8675237640426
 20
135.1597098092645
 10
202.682847657767
 20
134.8049894586606
 10
203.5127876000547
 20
134.5262573509685
 10
204.351027864289
 20
134.3256329167587
 10
205.1911882205679
 20
134.204645456528
 10
206.0268748178987
 20
134.1642125505743
 10
206.8517274507315
 20
134.204645456528
 10
207.6594693147474
 20
134.3256329167587
 10
208.4439524238532
 20
134.5262573509685
 10
209.1992067262547
 20
134.8049894586606
 10
209.9194831852214
 20
135.1597098092645
 10
210.5993017733562
 20
135.5877178380208
 10
211.2334862468265
 20
136.0857552352832
 10
211.8172120283187
 20
136.6500338337628
 10
212.3460363830186
 20
137.2762571986524
 10
212.8159342496434
 20
137.9596602095223
 10
213.2233293898049
 20
138.695041445507
 10
213.5651227190561
 20
139.4768045663773
 10
213.8387109593482
 20
140.2989996936128
 10
214.0420111412714
 20
141.1553692894167
 10
214.1734799054339
 20
142.0393967344964
 10
214.2321136877097
 20
142.9443531066667
 10
214.2174657446495
 20
143.8633507063673
 10
214.129650274107
 20
144.7893965821803
  0
LWPOLYLINE
  5
A9
330
1F
100
AcDbEntity
  8
0
  6
Continuous
 62
     7
370
    25
100
AcDbPolyline
 90
       65
 70
   128
 43
0.0
 10
211.6188568154853
 20
144.4788137735664
 10
211.4710429025207
 20
145.3091335345874
 10
211.2515092616621
 20
146.131456853188
 10
210.9623670051011
 20
146.9378644266643
 10
210.6064035845005
 20
147.720590107259
 10
210.1870453650014
 20
148.4720955680093
 10
209.7083333149279
 20
149.1851433943149
 10
209.1748749434459
 20
149.8528668582732
 10
208.5918097418505
 20
150.4688352231837
 10
207.9647523955144
 20
151.0271164055116
 10
207.2997416147564
 20
151.5223338176377
 10
206.6031815480264
 20
151.9497183753202
 10
205.8817808539781
 20
152.3051538988034
 10
205.1424867830356
 20
152.5852176224133
 10
204.3924196011384
 20
152.7872121299503
 10
203.6388028445945
 20
152.909192286121
 10
202.8888931595233
 20
152.9499832283087
 10
202.1499133744698
 20
152.909192286121
 10
201.4289811022644
 20
152.7872121299503
 10
200.7330381855373
 20
152.5852176224133
 10
200.0687869631653
 20
152.3051538988034
 10
199.4426249305956
 20
151.9497183753202
 10
198.8605822109542
 20
151.5223338176377
 10
198.3282645358532
 20
151.0271164055116
 10
197.8507977781968
 20
150.4688352231837
 10
197.4327808025424
 20
149.8528668582732
 10
197.0782387972698
 20
149.1851433943149
 10
196.7905867315079
 20
148.4720955680093
 10
196.5725943982362
 20
147.720590107259
 10
196.4263614900088
 20
146.9378644266643
 10
196.3532962980801
 20
146.131456853188
 10
196.3541023165343
 20
145.3091335345874
 10
196.4287719129948
 20
144.4788137735664
 10
196.5765858259595
 20
143.6484940125455
 10
196.7961206766416
 20
142.8261706939448
 10
197.0852620965231
 20
142.0197633453656
 10
197.441225718761
 20
141.237037664771
 10
197.8605833333483
 20
140.4855322040207
 10
198.3392960184641
 20
139.7724841528179
 10
198.8727539490084
 20
139.104760969981
 10
199.4558192296963
 20
138.4887920147156
 10
200.0828769604754
 20
137.9305109729484
 10
200.7478877111029
 20
137.4352937857194
 10
201.4444477853655
 20
137.0079091718126
 10
202.1658484794139
 20
136.6524736483294
 10
202.9051425202258
 20
136.3724101496167
 10
203.655209702123
 20
136.1704156420797
 10
204.408826518928
 20
136.0484350361147
 10
205.1587362039992
 20
136.007644093927
 10
205.8977159890526
 20
136.0484350361147
 10
206.6186482009971
 20
136.1704156420797
 10
207.3145911177242
 20
136.3724101496167
 10
207.9788423702266
 20
136.6524736483294
 10
208.6050044027964
 20
137.0079091718126
 10
209.1870471149051
 20
137.4352937857194
 10
209.7193648201366
 20
137.9305109729484
 10
210.1968311933501
 20
138.4887920147156
 10
210.6148480899119
 20
139.104760969981
 10
210.9693905361221
 20
139.7724841528179
 10
211.2570419668418
 20
140.4855322040207
 10
211.4750349050252
 20
141.237037664771
 10
211.6212676116154
 20
142.0197633453656
 10
211.6943336402236
 20
142.8261706939448
 10
211.6935264119458
 20
143.6484940125455
 10
211.6188568154853
 20
144.4788137735664
  0
LWPOLYLINE
  5
AA
330
1F
100
AcDbEntity
  8
0
  6
Continuous
 62
     7
370
    25
100
AcDbPolyline
 90
       38
 70
   128
 43
0.0
 10
199.7456216669515
 20
154.6661066206767
 10
200.3456079717116
 20
154.9549770910729
 10
201.1008618105775
 20
155.2337096485593
 10
201.8853449799443
 20
155.4343336329747
 10
202.6930867234382
 20
155.555321992794
 10
203.517939476793
 20
155.5957539991592
 10
204.3536259536018
 20
155.555321992794
 10
205.1937864304028
 20
155.4343336329747
 10
206.0320266343761
 20
155.2337096485593
 10
206.8619670401993
 20
154.9549770910729
 10
207.6772904703882
 20
154.6002571902632
 10
208.4717934340518
 20
154.172249386404
 10
209.2394267163106
 20
153.6742113144502
 10
209.9743504323105
 20
153.109933165765
 10
210.6709708469793
 20
152.4837096884268
 10
211.3239859984717
 20
151.8003066775568
 10
211.9284259733085
 20
151.0649252447872
 10
212.4796921107682
 20
150.2831620395804
 10
212.9735868789566
 20
149.4609668561206
 10
213.4063506326284
 20
148.6045970354196
 10
213.774693776526
 20
147.7205700401342
 10
214.0758098577797
 20
146.815613892861
 10
214.3074066396665
 20
145.8966158433661
 10
214.4677244137022
 20
144.9705699675531
 10
214.5555398842447
 20
144.0445240917401
 10
214.5701878273049
 20
143.1255264920395
 10
214.5115540450291
 20
142.2205701198692
 10
214.3800852808666
 20
141.3365426747895
 10
214.1767850989434
 20
140.4801730789856
 10
213.9031968586513
 20
139.6579779517501
 10
213.5614035294002
 20
138.8762148308798
 10
213.1540083892386
 20
138.1408335948951
 10
212.6841105226139
 20
137.4574305840252
 10
212.1552861679139
 20
136.8312072191356
 10
211.5715603864218
 20
136.266928620656
 10
210.9373759129514
 20
135.7688912233936
 10
210.2575573248166
 20
135.3408831946373
 10
210.137266364061
 20
135.2750333144296
  0
LWPOLYLINE
  5
AB
330
1F
100
AcDbEntity
  8
0
  6
Continuous
 62
     7
370
    25
100
AcDbPolyline
 90
       62
 70
   128
 43
0.0
 10
210.9520182260435
 20
144.4788137735664
 10
210.8088495504759
 20
145.2733533004975
 10
210.5937584451442
 20
146.0594708796348
 10
210.309022856519
 20
146.8288327228603
 10
209.9576645818474
 20
147.5732840601727
 10
209.5434041554169
 20
148.2849330263182
 10
209.0706364791156
 20
148.9562362341486
 10
208.5443702405867
 20
149.5800777135147
 10
207.9701839143218
 20
150.1498444767029
 10
207.3541663268933
 20
150.6594968954241
 10
206.7028468066399
 20
151.1036325382161
 10
206.0231278218818
 20
151.4775434735299
 10
205.3222161966206
 20
151.7772661301268
 10
204.607540849507
 20
151.9996233862249
 10
203.8866781174482
 20
152.142258207434
 10
203.167268577836
 20
152.2036584978878
 10
202.4569390183476
 20
152.1831736301841
 10
201.7632185338088
 20
152.081020630055
 10
201.0934613535991
 20
151.8982822647418
 10
200.4547660801772
 20
151.6368957981384
 10
199.8539039230978
 20
151.2996317942364
 10
199.2972438983562
 20
150.890065470853
 10
198.7906865973503
 20
150.4125382703338
 10
198.3396017617725
 20
149.8721120929862
 10
197.9487709533457
 20
149.2745156028892
 10
197.6223372104907
 20
148.6260835337802
 10
197.3637608364097
 20
147.9336893604757
 10
197.1757825455011
 20
147.2046727133225
 10
197.0603952118243
 20
146.4467612826685
 10
197.0188217831581
 20
145.6679888438576
 10
197.0515029883808
 20
144.8766109208062
 10
197.1580924127351
 20
144.0810166263267
 10
197.3374602829019
 20
143.2896387032752
 10
197.5877050973741
 20
142.5108667142586
 10
197.906174186829
 20
141.7529552836045
 10
198.2894918996111
 20
141.0239386364514
 10
198.7335947634035
 20
140.3315442382498
 10
199.2337754007185
 20
139.6831118317951
 10
199.7847317286642
 20
139.0855151730252
 10
200.3806232994332
 20
138.5450891643505
 10
201.0151335716874
 20
138.0675623855134
 10
201.6815365808581
 20
137.6579959215693
 10
202.3727683328213
 20
137.3207320863401
 10
203.0815019892735
 20
137.0593449450453
 10
203.8002237066341
 20
136.8766070295264
 10
204.5213159749313
 20
136.7744542542944
 10
205.2371345135043
 20
136.7539688243479
 10
205.9400918647438
 20
136.8153693396989
 10
206.6227356664513
 20
136.9580044982536
 10
207.2778306416885
 20
137.1803611921089
 10
207.8984317629003
 20
137.4800842985001
 10
208.4779616898261
 20
137.853994671571
 10
209.0102753952516
 20
138.298130523447
 10
209.4897319662835
 20
138.8077834077756
 10
209.9112497183476
 20
139.377550395861
 10
210.2703581664058
 20
140.00139165033
 10
210.5632507656188
 20
140.6726942959175
 10
210.7868253961456
 20
141.3843434869601
 10
210.9387084759191
 20
142.1287952740668
 10
211.0172942402257
 20
142.898156667498
 10
211.0217457750717
 20
143.6842742466353
 10
210.9520182260435
 20
144.4788137735664
  0
SPLINE
  5
AC
330
1F
100
AcDbEntity
  8
0
  6
Continuous
 62
     8
370
    25
100
AcDbSpline
210
0.0
220
0.0
230
1.0
 70
     8
 71
     3
 72
    28
 73
    24
 74
     0
 42
0.000000001
 43
0.00000001
 40
0.0
 40
0.0
 40
0.0
 40
0.0
 40
0.017448096733737
 40
0.0624667898532378
 40
0.1065186196956606
 40
0.1505993672040828
 40
0.2069537248677571
 40
0.2617811347237539
 40
0.3149726191073944
 40
0.3681381515732641
 40
0.4229659145354995
 40
0.4793458915833666
 40
0.5233977021906187
 40
0.567478422423453
 40
0.612467621201765
 40
0.6574863023573532
 40
0.7024755136281254
 40
0.7474942055733862
 40
0.7915460383562428
 40
0.8356267538986593
 40
0.8919811000928373
 40
0.9468020356316124
 40
1.0
 40
1.0
 40
1.0
 40
1.0
 10
197.1356863593614
 20
146.6324682901221
 30
0.0
 10
197.1460572145528
 20
146.7314230956045
 30
0.0
 10
197.1831864236421
 20
147.0856960649355
 30
0.0
 10
197.322528711928
 20
147.6644700553382
 30
0.0
 10
197.5485525593227
 20
148.3603256355658
 30
0.0
 10
197.8713520497007
 20
149.0703110723378
 30
0.0
 10
198.3010114008561
 20
149.7723908944072
 30
0.0
 10
198.8479197804104
 20
150.4304779824654
 30
0.0
 10
199.4629258505812
 20
150.9849475722791
 30
0.0
 10
200.1462954566066
 20
151.4419204521566
 30
0.0
 10
200.9035711931773
 20
151.7998322903389
 30
0.0
 10
201.6663711134534
 20
152.0270260198934
 30
0.0
 10
202.4050670438978
 20
152.1427982627742
 30
0.0
 10
203.1023357614644
 20
152.1702205980349
 30
0.0
 10
203.8142870501591
 20
152.1180260727943
 30
0.0
 10
204.5333098171804
 20
151.9835899131635
 30
0.0
 10
205.2471029703987
 20
151.7699054947859
 30
0.0
 10
205.9427905657649
 20
151.4801501076818
 30
0.0
 10
206.6138477484896
 20
151.1201780550155
 30
0.0
 10
207.3132456949468
 20
150.6553364763816
 30
0.0
 10
208.0196691345619
 20
150.0699068528887
 30
0.0
 10
208.7092401315812
 20
149.3652840268038
 30
0.0
 10
209.1002447431073
 20
148.8413469088456
 30
0.0
 10
209.2928096498942
 20
148.5833143964207
 30
0.0
  0
SPLINE
  5
AD
330
1F
100
AcDbEntity
  8
0
  6
Continuous
 62
     8
370
    25
100
AcDbSpline
210
0.0
220
0.0
230
1.0
 70
     8
 71
     3
 72
    28
 73
    24
 74
     0
 42
0.000000001
 43
0.00000001
 40
0.0
 40
0.0
 40
0.0
 40
0.0
 40
0.0517594380050356
 40
0.1050986304859151
 40
0.1599674475425171
 40
0.2028385676012777
 40
0.2457378270658676
 40
0.2895211675671908
 40
0.3333332153975538
 40
0.3771165899577009
 40
0.4209286532766582
 40
0.4637997667707799
 40
0.5066990298077985
 40
0.5615429120599789
 40
0.6149008419696509
 40
0.6666666348623597
 40
0.7184071865667547
 40
0.7717654037969969
 40
0.8266342449436972
 40
0.8695053471348342
 40
0.9124045817421065
 40
0.9561879437532222
 40
1.0
 40
1.0
 40
1.0
 40
1.0
 10
209.2928096498942
 20
148.5833143964207
 30
0.0
 10
209.4702016116541
 20
148.3135645330392
 30
0.0
 10
209.8303997312387
 20
147.7658317463656
 30
0.0
 10
210.2669966951071
 20
146.8641158945664
 30
0.0
 10
210.5904085440225
 20
145.980440138397
 30
0.0
 10
210.8066475886769
 20
145.1390295581093
 30
0.0
 10
210.9360388335894
 20
144.357279452002
 30
0.0
 10
210.9945659225625
 20
143.5709864741949
 30
0.0
 10
210.978790507406
 20
142.7891146629632
 30
0.0
 10
210.8895925524891
 20
142.0249058311709
 30
0.0
 10
210.7279455384045
 20
141.2922870377818
 30
0.0
 10
210.4983283644049
 20
140.5975307559443
 30
0.0
 10
210.1765410273097
 20
139.8872364671651
 30
0.0
 10
209.7465426469553
 20
139.1852596065368
 30
0.0
 10
209.1997285019221
 20
138.5271448330176
 30
0.0
 10
208.584698291395
 20
137.9726797495126
 30
0.0
 10
207.9013358438376
 20
137.515712807314
 30
0.0
 10
207.1440558441988
 20
137.1577713393095
 30
0.0
 10
206.3812641308899
 20
136.9306878341022
 30
0.0
 10
205.6425457339634
 20
136.8145851774256
 30
0.0
 10
204.9453564872873
 20
136.7883339172568
 30
0.0
 10
204.2331016508694
 20
136.8360616399854
 30
0.0
 10
203.7544600521872
 20
136.9368609461111
 30
0.0
 10
203.5150608568803
 20
136.9872771089361
 30
0.0
  0
MTEXT
  5
DE
330
1F
100
AcDbEntity
  8
0
  6
Continuous
 62
     7
370
     0
100
AcDbMText
 10
240.9371428571428
 20
119.2503344111184
 30
0.0
 40
3.5
 41
0.0
 46
3.5
 71
     1
 72
     1
  1
{GHEC-078S-NA}
  7
SLDTEXTSTYLE0
 73
     1
 44
1.0
  0
ENDSEC
  0
SECTION
  2
OBJECTS
  0
DICTIONARY
  5
C
330
0
100
AcDbDictionary
281
     1
  3
ACAD_DETAILVIEWSTYLE
350
E4
  3
ACAD_GROUP
350
D
  3
ACAD_LAYOUT
350
1A
  3
ACAD_MATERIAL
350
C7
  3
ACAD_MLEADERSTYLE
350
CD
  3
ACAD_MLINESTYLE
350
17
  3
ACAD_PLOTSETTINGS
350
19
  3
ACAD_PLOTSTYLENAME
350
E
  3
ACAD_SCALELIST
350
47
  3
ACAD_SECTIONVIEWSTYLE
350
E5
  3
ACAD_TABLESTYLE
350
CB
  3
ACAD_VISUALSTYLE
350
AE
  3
ACDB_RECOMPOSE_DATA
350
E8
  3
AcDbVariableDictionary
350
DF
  3
APPDATA
350
CF
  0
DICTIONARY
  5
E4
102
{ACAD_REACTORS
330
C
102
}
330
C
100
AcDbDictionary
281
     1
  0
DICTIONARY
  5
D
102
{ACAD_REACTORS
330
C
102
}
330
C
100
AcDbDictionary
281
     1
  0
DICTIONARY
  5
1A
102
{ACAD_REACTORS
330
C
102
}
330
C
100
AcDbDictionary
281
     1
  3
Layout1
350
1E
  3
Layout2
350
26
  3
Model
350
22
  0
DICTIONARY
  5
C7
102
{ACAD_REACTORS
330
C
102
}
330
C
100
AcDbDictionary
281
     1
  3
ByBlock
350
C9
  3
ByLayer
350
C8
  3
Global
350
CA
  0
DICTIONARY
  5
CD
102
{ACAD_REACTORS
330
C
102
}
330
C
100
AcDbDictionary
281
     1
  3
Standard
350
CE
  0
DICTIONARY
  5
17
102
{ACAD_REACTORS
330
C
102
}
330
C
100
AcDbDictionary
281
     1
  3
Standard
350
18
  0
DICTIONARY
  5
19
102
{ACAD_REACTORS
330
C
102
}
330
C
100
AcDbDictionary
281
     1
  0
ACDBDICTIONARYWDFLT
  5
E
102
{ACAD_REACTORS
330
C
102
}
330
C
100
AcDbDictionary
281
     1
  3
Normal
350
F
100
AcDbDictionaryWithDefault
340
F
  0
DICTIONARY
  5
47
102
{ACAD_REACTORS
330
C
102
}
330
C
100
AcDbDictionary
281
     1
  3
A0
350
48
  3
A1
350
49
  3
A2
350
4A
  3
A3
350
4B
  3
A4
350
4C
  3
A5
350
4D
  3
A6
350
4E
  3
A7
350
4F
  3
A8
350
50
  3
A9
350
51
  3
B0
350
52
  3
B1
350
53
  3
B2
350
54
  3
B3
350
55
  3
B4
350
56
  3
B5
350
57
  3
B6
350
58
  3
B7
350
59
  3
B8
350
5A
  3
B9
350
5B
  3
C0
350
5C
  3
C1
350
5D
  3
C2
350
5E
  3
C3
350
5F
  3
C4
350
60
  3
C5
350
61
  3
C6
350
62
  3
C7
350
63
  3
C8
350
64
  3
C9
350
65
  3
D0
350
66
  3
D1
350
67
  3
D2
350
68
  0
DICTIONARY
  5
E5
102
{ACAD_REACTORS
330
C
102
}
330
C
100
AcDbDictionary
281
     1
  0
DICTIONARY
  5
CB
102
{ACAD_REACTORS
330
C
102
}
330
C
100
AcDbDictionary
281
     1
  3
Standard
350
CC
  0
DICTIONARY
  5
AE
102
{ACAD_REACTORS
330
C
102
}
330
C
100
AcDbDictionary
281
     1
  3
2dWireframe
350
B3
  3
Basic
350
B6
  3
Brighten
350
BA
  3
ColorChange
350
BE
  3
Conceptual
350
B8
  3
Dim
350
B9
  3
EdgeColorOff
350
C1
  3
Facepattern
350
BD
  3
Flat
350
AF
  3
FlatWithEdges
350
B0
  3
Gouraud
350
B1
  3
GouraudWithEdges
350
B2
  3
Hidden
350
B5
  3
JitterOff
350
BF
  3
Linepattern
350
BC
  3
OverhangOff
350
C0
  3
Realistic
350
B7
  3
Shaded
350
C6
  3
Shaded with edges
350
C5
  3
Shades of Gray
350
C2
  3
Sketchy
350
C3
  3
Thicken
350
BB
  3
Wireframe
350
B4
  3
X-Ray
350
C4
  0
XRECORD
  5
E8
102
{ACAD_REACTORS
330
C
102
}
330
C
100
AcDbXrecord
280
     1
 90
        1
330
CC
  0
DICTIONARY
  5
DF
102
{ACAD_REACTORS
330
C
102
}
330
C
100
AcDbDictionary
281
     1
  3
CANNOSCALE
350
E0
  3
CMLEADERSTYLE
350
E2
  3
CTABLESTYLE
350
E1
  3
MSLTSCALE
350
E3
  0
DICTIONARY
  5
CF
102
{ACAD_REACTORS
330
C
102
}
330
C
100
AcDbDictionary
281
     1
  0
LAYOUT
  5
1E
102
{ACAD_REACTORS
330
1A
102
}
330
1A
100
AcDbPlotSettings
  1

  2
none_device
  4

  6

 40
0.0
 41
0.0
 42
0.0
 43
0.0
 44
0.0
 45
0.0
 46
0.0
 47
0.0
 48
0.0
 49
0.0
140
0.0
141
0.0
142
1.0
143
1.0
 70
   688
 72
     1
 73
     0
 74
     5
  7

 75
    16
 76
     0
 77
     2
 78
   300
147
1.0
148
0.0
149
0.0
100
AcDbLayout
  1
Layout1
 70
     1
 71
     1
 10
0.0
 20
0.0
 11
420.0
 21
297.0
 12
0.0
 22
0.0
 32
0.0
 14
1.000000000000000E+20
 24
1.000000000000000E+20
 34
1.000000000000000E+20
 15
-1.000000000000000E+20
 25
-1.000000000000000E+20
 35
-1.000000000000000E+20
146
0.0
 13
0.0
 23
0.0
 33
0.0
 16
1.0
 26
0.0
 36
0.0
 17
0.0
 27
1.0
 37
0.0
 76
     0
330
1B
  0
LAYOUT
  5
26
102
{ACAD_REACTORS
330
1A
102
}
330
1A
100
AcDbPlotSettings
  1

  2
none_device
  4

  6

 40
0.0
 41
0.0
 42
0.0
 43
0.0
 44
0.0
 45
0.0
 46
0.0
 47
0.0
 48
0.0
 49
0.0
140
0.0
141
0.0
142
1.0
143
1.0
 70
   688
 72
     1
 73
     0
 74
     5
  7

 75
    16
 76
     0
 77
     2
 78
   300
147
1.0
148
0.0
149
0.0
100
AcDbLayout
  1
Layout2
 70
     1
 71
     2
 10
0.0
 20
0.0
 11
0.0
 21
0.0
 12
0.0
 22
0.0
 32
0.0
 14
0.0
 24
0.0
 34
0.0
 15
0.0
 25
0.0
 35
0.0
146
0.0
 13
0.0
 23
0.0
 33
0.0
 16
1.0
 26
0.0
 36
0.0
 17
0.0
 27
1.0
 37
0.0
 76
     0
330
23
  0
LAYOUT
  5
22
102
{ACAD_REACTORS
330
1A
102
}
330
1A
100
AcDbPlotSettings
  1

  2
none_device
  4
Letter_(8.50_x_11.00_Inches)
  6

 40
6.35
 41
6.35
 42
6.35000508
 43
6.35000508
 44
215.9
 45
279.4
 46
0.0
 47
0.0
 48
0.0
 49
0.0
140
0.0
141
0.0
142
1.0
143
1.0
 70
  1712
 72
     1
 73
     0
 74
     0
  7

 75
     0
 76
     0
 77
     2
 78
   300
147
1.0
148
0.0
149
0.0
100
AcDbLayout
  1
Model
 70
     1
 71
     0
 10
0.0
 20
0.0
 11
431.8
 21
279.4
 12
0.0
 22
0.0
 32
0.0
 14
190.7891405467726
 24
115.7503344111184
 34
0.0
 15
275.8174964272316
 25
177.8757028296503
 35
0.0
146
0.0
 13
0.0
 23
0.0
 33
0.0
 16
1.0
 26
0.0
 36
0.0
 17
0.0
 27
1.0
 37
0.0
 76
     0
330
1F
331
29
  0
MATERIAL
  5
C9
102
{ACAD_REACTORS
330
C7
102
}
330
C7
100
AcDbMaterial
  1
ByBlock
 72
     1
 94
      127
  0
MATERIAL
  5
C8
102
{ACAD_REACTORS
330
C7
102
}
330
C7
100
AcDbMaterial
  1
ByLayer
 72
     1
 94
      127
  0
MATERIAL
  5
CA
102
{ACAD_REACTORS
330
C7
102
}
330
C7
100
AcDbMaterial
  1
Global
 72
     1
 94
      127
  0
MLEADERSTYLE
  5
CE
102
{ACAD_REACTORS
330
CD
102
}
330
CD
100
AcDbMLeaderStyle
179
     2
170
     2
171
     1
172
     0
 90
        2
 40
0.0
 41
0.0
173
     1
 91
-1056964608
340
14
 92
       -2
290
     1
 42
2.0
291
     1
 43
8.0
  3
Standard
341
0
 44
4.0
300

342
11
174
     1
178
     1
175
     1
176
     0
 93
-1056964608
 45
4.0
292
     0
297
     0
 46
4.0
343
0
 94
-1056964608
 47
1.0
 49
1.0
140
1.0
293
     1
141
0.0
294
     1
177
     0
142
1.0
295
     0
296
     0
143
3.75
271
     0
272
     9
273
     9
298
     0
  0
MLINESTYLE
  5
18
102
{ACAD_REACTORS
330
17
102
}
330
17
100
AcDbMlineStyle
  2
Standard
 70
     0
  3

 62
   256
 51
90.0
 52
90.0
 71
     2
 49
0.5
 62
   256
  6
BYLAYER
 49
-0.5
 62
   256
  6
BYLAYER
  0
ACDBPLACEHOLDER
  5
F
102
{ACAD_REACTORS
330
E
102
}
330
E
  0
SCALE
  5
48
102
{ACAD_REACTORS
330
47
102
}
330
47
100
AcDbScale
 70
     0
300
1:1
140
1.0
141
1.0
290
     1
  0
SCALE
  5
49
102
{ACAD_REACTORS
330
47
102
}
330
47
100
AcDbScale
 70
     0
300
1:2
140
1.0
141
2.0
290
     0
  0
SCALE
  5
4A
102
{ACAD_REACTORS
330
47
102
}
330
47
100
AcDbScale
 70
     0
300
1:4
140
1.0
141
4.0
290
     0
  0
SCALE
  5
4B
102
{ACAD_REACTORS
330
47
102
}
330
47
100
AcDbScale
 70
     0
300
1:5
140
1.0
141
5.0
290
     0
  0
SCALE
  5
4C
102
{ACAD_REACTORS
330
47
102
}
330
47
100
AcDbScale
 70
     0
300
1:8
140
1.0
141
8.0
290
     0
  0
SCALE
  5
4D
102
{ACAD_REACTORS
330
47
102
}
330
47
100
AcDbScale
 70
     0
300
1:10
140
1.0
141
10.0
290
     0
  0
SCALE
  5
4E
102
{ACAD_REACTORS
330
47
102
}
330
47
100
AcDbScale
 70
     0
300
1:16
140
1.0
141
16.0
290
     0
  0
SCALE
  5
4F
102
{ACAD_REACTORS
330
47
102
}
330
47
100
AcDbScale
 70
     0
300
1:20
140
1.0
141
20.0
290
     0
  0
SCALE
  5
50
102
{ACAD_REACTORS
330
47
102
}
330
47
100
AcDbScale
 70
     0
300
1:30
140
1.0
141
30.0
290
     0
  0
SCALE
  5
51
102
{ACAD_REACTORS
330
47
102
}
330
47
100
AcDbScale
 70
     0
300
1:40
140
1.0
141
40.0
290
     0
  0
SCALE
  5
52
102
{ACAD_REACTORS
330
47
102
}
330
47
100
AcDbScale
 70
     0
300
1:50
140
1.0
141
50.0
290
     0
  0
SCALE
  5
53
102
{ACAD_REACTORS
330
47
102
}
330
47
100
AcDbScale
 70
     0
300
1:100
140
1.0
141
100.0
290
     0
  0
SCALE
  5
54
102
{ACAD_REACTORS
330
47
102
}
330
47
100
AcDbScale
 70
     0
300
2:1
140
2.0
141
1.0
290
     0
  0
SCALE
  5
55
102
{ACAD_REACTORS
330
47
102
}
330
47
100
AcDbScale
 70
     0
300
4:1
140
4.0
141
1.0
290
     0
  0
SCALE
  5
56
102
{ACAD_REACTORS
330
47
102
}
330
47
100
AcDbScale
 70
     0
300
8:1
140
8.0
141
1.0
290
     0
  0
SCALE
  5
57
102
{ACAD_REACTORS
330
47
102
}
330
47
100
AcDbScale
 70
     0
300
10:1
140
10.0
141
1.0
290
     0
  0
SCALE
  5
58
102
{ACAD_REACTORS
330
47
102
}
330
47
100
AcDbScale
 70
     0
300
100:1
140
100.0
141
1.0
290
     0
  0
SCALE
  5
59
102
{ACAD_REACTORS
330
47
102
}
330
47
100
AcDbScale
 70
     0
300
1/128" = 1'-0"
140
0.0078125
141
12.0
290
     0
  0
SCALE
  5
5A
102
{ACAD_REACTORS
330
47
102
}
330
47
100
AcDbScale
 70
     0
300
1/64" = 1'-0"
140
0.015625
141
12.0
290
     0
  0
SCALE
  5
5B
102
{ACAD_REACTORS
330
47
102
}
330
47
100
AcDbScale
 70
     0
300
1/32" = 1'-0"
140
0.03125
141
12.0
290
     0
  0
SCALE
  5
5C
102
{ACAD_REACTORS
330
47
102
}
330
47
100
AcDbScale
 70
     0
300
1/16" = 1'-0"
140
0.0625
141
12.0
290
     0
  0
SCALE
  5
5D
102
{ACAD_REACTORS
330
47
102
}
330
47
100
AcDbScale
 70
     0
300
3/32" = 1'-0"
140
0.09375
141
12.0
290
     0
  0
SCALE
  5
5E
102
{ACAD_REACTORS
330
47
102
}
330
47
100
AcDbScale
 70
     0
300
1/8" = 1'-0"
140
0.125
141
12.0
290
     0
  0
SCALE
  5
5F
102
{ACAD_REACTORS
330
47
102
}
330
47
100
AcDbScale
 70
     0
300
3/16" = 1'-0"
140
0.1875
141
12.0
290
     0
  0
SCALE
  5
60
102
{ACAD_REACTORS
330
47
102
}
330
47
100
AcDbScale
 70
     0
300
1/4" = 1'-0"
140
0.25
141
12.0
290
     0
  0
SCALE
  5
61
102
{ACAD_REACTORS
330
47
102
}
330
47
100
AcDbScale
 70
     0
300
3/8" = 1'-0"
140
0.375
141
12.0
290
     0
  0
SCALE
  5
62
102
{ACAD_REACTORS
330
47
102
}
330
47
100
AcDbScale
 70
     0
300
1/2" = 1'-0"
140
0.5
141
12.0
290
     0
  0
SCALE
  5
63
102
{ACAD_REACTORS
330
47
102
}
330
47
100
AcDbScale
 70
     0
300
3/4" = 1'-0"
140
0.75
141
12.0
290
     0
  0
SCALE
  5
64
102
{ACAD_REACTORS
330
47
102
}
330
47
100
AcDbScale
 70
     0
300
1" = 1'-0"
140
1.0
141
12.0
290
     0
  0
SCALE
  5
65
102
{ACAD_REACTORS
330
47
102
}
330
47
100
AcDbScale
 70
     0
300
1-1/2" = 1'-0"
140
1.5
141
12.0
290
     0
  0
SCALE
  5
66
102
{ACAD_REACTORS
330
47
102
}
330
47
100
AcDbScale
 70
     0
300
3" = 1'-0"
140
3.0
141
12.0
290
     0
  0
SCALE
  5
67
102
{ACAD_REACTORS
330
47
102
}
330
47
100
AcDbScale
 70
     0
300
6" = 1'-0"
140
6.0
141
12.0
290
     0
  0
SCALE
  5
68
102
{ACAD_REACTORS
330
47
102
}
330
47
100
AcDbScale
 70
     0
300
1'-0" = 1'-0"
140
12.0
141
12.0
290
     0
  0
TABLESTYLE
  5
CC
102
{ACAD_REACTORS
330
CB
102
}
102
{ACAD_XDICTIONARY
360
E6
102
}
330
CB
100
AcDbTableStyle
  3
Standard
 70
     0
 71
     0
 40
0.06
 41
0.06
280
     0
281
     0
  7
Standard
140
4.5
170
     2
 62
     0
 63
   257
283
     0
 90
        4
 91
        0
  1

274
    -2
284
     1
 64
     0
275
    -2
285
     1
 65
     0
276
    -2
286
     1
 66
     0
277
    -2
287
     1
 67
     0
278
    -2
288
     1
 68
     0
279
    -2
289
     1
 69
     0
  7
Standard
140
6.0
170
     5
 62
     0
 63
   257
283
     0
 90
        4
 91
        0
  1

274
    -2
284
     1
 64
     0
275
    -2
285
     1
 65
     0
276
    -2
286
     1
 66
     0
277
    -2
287
     1
 67
     0
278
    -2
288
     1
 68
     0
279
    -2
289
     1
 69
     0
  7
Standard
140
4.5
170
     5
 62
     0
 63
   257
283
     0
 90
        4
 91
        0
  1

274
    -2
284
     1
 64
     0
275
    -2
285
     1
 65
     0
276
    -2
286
     1
 66
     0
277
    -2
287
     1
 67
     0
278
    -2
288
     1
 68
     0
279
    -2
289
     1
 69
     0
  0
VISUALSTYLE
  5
B3
102
{ACAD_REACTORS
330
AE
102
}
330
AE
100
AcDbVisualStyle
  2
2dWireframe
 70
     4
177
     3
291
     0
 70
    58
 90
        0
176
     1
 90
        2
176
     1
 90
        0
176
     1
 90
        0
176
     1
 40
0.6
176
     1
 40
30.0
176
     1
 62
     7
420
 16777215
176
     1
 90
        1
176
     1
 90
        4
176
     1
 62
     7
176
     1
 62
   257
176
     1
 90
        1
176
     1
 90
        1
176
     1
 40
1.0
176
     1
 90
        0
176
     1
 62
   257
176
     1
 40
1.0
176
     1
 90
        1
176
     1
 90
        6
176
     1
 90
        2
176
     1
 62
     7
176
     1
 90
        5
176
     1
 90
        0
176
     1
 90
        0
176
     1
290
     0
176
     1
 90
        1
176
     1
 40
0.0
176
     1
 90
        0
176
     1
290
     1
176
     1
290
     1
176
     1
290
     0
176
     1
290
     0
176
     1
290
     0
176
     1
290
     0
176
     1
290
     0
176
     1
290
     0
176
     1
290
     0
176
     1
 90
       50
176
     1
 40
0.0
176
     1
 40
1.0
176
     1
 90
        0
176
     1
 62
    18
420
        0
176
     1
 90
       50
176
     1
 90
        3
176
     1
 62
     5
420
      255
176
     1
290
     0
176
     1
 90
       50
176
     1
 90
       50
176
     1
 90
       50
176
     1
290
     0
176
     1
 90
       50
176
     1
 62
   256
176
     0
 40
1.0
176
     0
 90
        2
176
     1
  1
strokes_ogs.tif
176
     1
290
     0
176
     1
 40
1.0
176
     1
 40
1.0
176
     1
  0
VISUALSTYLE
  5
B6
102
{ACAD_REACTORS
330
AE
102
}
330
AE
100
AcDbVisualStyle
  2
Basic
 70
     7
177
     3
291
     1
 70
    58
 90
        1
176
     1
 90
        0
176
     1
 90
        1
176
     1
 90
        0
176
     1
 40
0.6
176
     1
 40
30.0
176
     1
 62
     7
420
 16777215
176
     1
 90
        0
176
     1
 90
        4
176
     1
 62
     7
176
     1
 62
   257
176
     1
 90
        1
176
     1
 90
        1
176
     1
 40
1.0
176
     1
 90
        8
176
     1
 62
     7
176
     1
 40
1.0
176
     1
 90
        1
176
     1
 90
        6
176
     1
 90
        2
176
     1
 62
     7
176
     1
 90
        5
176
     1
 90
        0
176
     1
 90
        0
176
     1
290
     0
176
     1
 90
        1
176
     1
 40
0.0
176
     1
 90
        0
176
     1
290
     0
176
     1
290
     1
176
     1
290
     1
176
     1
290
     0
176
     1
290
     0
176
     1
290
     0
176
     1
290
     0
176
     1
290
     0
176
     1
290
     0
176
     1
 90
       50
176
     1
 40
0.0
176
     1
 40
1.0
176
     1
 90
        0
176
     1
 62
    18
420
        0
176
     1
 90
       50
176
     1
 90
        3
176
     1
 62
     5
420
      255
176
     1
290
     0
176
     1
 90
       50
176
     1
 90
       50
176
     1
 90
       50
176
     1
290
     0
176
     1
 90
       50
176
     1
 62
   256
176
     0
 40
1.0
176
     0
 90
        2
176
     1
  1
strokes_ogs.tif
176
     1
290
     0
176
     1
 40
1.0
176
     1
 40
1.0
176
     1
  0
VISUALSTYLE
  5
BA
102
{ACAD_REACTORS
330
AE
102
}
330
AE
100
AcDbVisualStyle
  2
Brighten
 70
    12
177
     3
291
     1
 70
    58
 90
        2
176
     1
 90
        2
176
     1
 90
        0
176
     1
 90
        0
176
     1
 40
0.6
176
     1
 40
30.0
176
     1
 62
     7
420
 16777215
176
     1
 90
        1
176
     1
 90
        4
176
     1
 62
     7
176
     1
 62
   257
176
     1
 90
        1
176
     1
 90
        1
176
     1
 40
1.0
176
     1
 90
        8
176
     1
 62
     7
176
     1
 40
1.0
176
     1
 90
        1
176
     1
 90
        6
176
     1
 90
        2
176
     1
 62
     7
176
     1
 90
        5
176
     1
 90
        0
176
     1
 90
        0
176
     1
290
     0
176
     1
 90
        1
176
     1
 40
50.0
176
     1
 90
        0
176
     1
290
     0
176
     1
290
     1
176
     1
290
     1
176
     1
290
     0
176
     1
290
     0
176
     1
290
     0
176
     1
290
     0
176
     1
290
     0
176
     1
290
     0
176
     1
 90
       50
176
     1
 40
0.0
176
     1
 40
1.0
176
     1
 90
        0
176
     1
 62
    18
420
        0
176
     1
 90
       50
176
     1
 90
        3
176
     1
 62
     5
420
      255
176
     1
290
     0
176
     1
 90
       50
176
     1
 90
       50
176
     1
 90
       50
176
     1
290
     0
176
     1
 90
       50
176
     1
 62
   256
176
     0
 40
1.0
176
     0
 90
        2
176
     1
  1
strokes_ogs.tif
176
     1
290
     0
176
     1
 40
1.0
176
     1
 40
1.0
176
     1
  0
VISUALSTYLE
  5
BE
102
{ACAD_REACTORS
330
AE
102
}
330
AE
100
AcDbVisualStyle
  2
ColorChange
 70
    16
177
     3
291
     1
 70
    58
 90
        2
176
     1
 90
        2
176
     1
 90
        3
176
     1
 90
        0
176
     1
 40
0.6
176
     1
 40
30.0
176
     1
 62
     8
420
  8421504
176
     1
 90
        1
176
     1
 90
        4
176
     1
 62
     7
176
     1
 62
   257
176
     1
 90
        1
176
     1
 90
        1
176
     1
 40
1.0
176
     1
 90
        8
176
     1
 62
     8
420
  8421504
176
     1
 40
1.0
176
     1
 90
        1
176
     1
 90
        6
176
     1
 90
        2
176
     1
 62
     7
176
     1
 90
        5
176
     1
 90
        0
176
     1
 90
        0
176
     1
290
     0
176
     1
 90
        1
176
     1
 40
0.0
176
     1
 90
        0
176
     1
290
     0
176
     1
290
     1
176
     1
290
     1
176
     1
290
     0
176
     1
290
     0
176
     1
290
     0
176
     1
290
     0
176
     1
290
     0
176
     1
290
     0
176
     1
 90
       50
176
     1
 40
0.0
176
     1
 40
1.0
176
     1
 90
        0
176
     1
 62
    18
420
        0
176
     1
 90
       50
176
     1
 90
        3
176
     1
 62
     5
420
      255
176
     1
290
     0
176
     1
 90
       50
176
     1
 90
       50
176
     1
 90
       50
176
     1
290
     0
176
     1
 90
       50
176
     1
 62
   256
176
     0
 40
1.0
176
     0
 90
        2
176
     1
  1
strokes_ogs.tif
176
     1
290
     0
176
     1
 40
1.0
176
     1
 40
1.0
176
     1
  0
VISUALSTYLE
  5
B8
102
{ACAD_REACTORS
330
AE
102
}
330
AE
100
AcDbVisualStyle
  2
Conceptual
 70
     9
177
     3
291
     0
 70
    58
 90
        3
176
     1
 90
        2
176
     1
 90
        0
176
     1
 90
        0
176
     1
 40
0.6
176
     1
 40
30.0
176
     1
 62
     7
420
 16777215
176
     1
 90
        2
176
     1
 90
        2
176
     1
 62
     7
176
     1
 62
   257
176
     1
 90
        1
176
     1
 90
        1
176
     1
 40
179.0
176
     1
 90
        8
176
     1
 62
     7
176
     1
 40
1.0
176
     1
 90
        1
176
     1
 90
        6
176
     1
 90
        2
176
     1
 62
     7
176
     1
 90
        3
176
     1
 90
        0
176
     1
 90
        0
176
     1
290
     0
176
     1
 90
        1
176
     1
 40
0.0
176
     1
 90
        0
176
     1
290
     0
176
     1
290
     1
176
     1
290
     1
176
     1
290
     0
176
     1
290
     0
176
     1
290
     0
176
     1
290
     0
176
     1
290
     0
176
     1
290
     0
176
     1
 90
       50
176
     1
 40
0.0
176
     1
 40
1.0
176
     1
 90
        0
176
     1
 62
    18
420
        0
176
     1
 90
       50
176
     1
 90
        3
176
     1
 62
     5
420
      255
176
     1
290
     0
176
     1
 90
       50
176
     1
 90
       50
176
     1
 90
       50
176
     1
290
     0
176
     1
 90
       50
176
     1
 62
   256
176
     0
 40
1.0
176
     0
 90
        2
176
     1
  1
strokes_ogs.tif
176
     1
290
     0
176
     1
 40
1.0
176
     1
 40
1.0
176
     1
  0
VISUALSTYLE
  5
B9
102
{ACAD_REACTORS
330
AE
102
}
330
AE
100
AcDbVisualStyle
  2
Dim
 70
    11
177
     3
291
     1
 70
    58
 90
        2
176
     1
 90
        2
176
     1
 90
        0
176
     1
 90
        0
176
     1
 40
0.6
176
     1
 40
30.0
176
     1
 62
     7
420
 16777215
176
     1
 90
        1
176
     1
 90
        4
176
     1
 62
     7
176
     1
 62
   257
176
     1
 90
        1
176
     1
 90
        1
176
     1
 40
1.0
176
     1
 90
        8
176
     1
 62
     7
176
     1
 40
1.0
176
     1
 90
        1
176
     1
 90
        6
176
     1
 90
        2
176
     1
 62
     7
176
     1
 90
        5
176
     1
 90
        0
176
     1
 90
        0
176
     1
290
     0
176
     1
 90
        1
176
     1
 40
-50.0
176
     1
 90
        0
176
     1
290
     0
176
     1
290
     1
176
     1
290
     1
176
     1
290
     0
176
     1
290
     0
176
     1
290
     0
176
     1
290
     0
176
     1
290
     0
176
     1
290
     0
176
     1
 90
       50
176
     1
 40
0.0
176
     1
 40
1.0
176
     1
 90
        0
176
     1
 62
    18
420
        0
176
     1
 90
       50
176
     1
 90
        3
176
     1
 62
     5
420
      255
176
     1
290
     0
176
     1
 90
       50
176
     1
 90
       50
176
     1
 90
       50
176
     1
290
     0
176
     1
 90
       50
176
     1
 62
   256
176
     0
 40
1.0
176
     0
 90
        2
176
     1
  1
strokes_ogs.tif
176
     1
290
     0
176
     1
 40
1.0
176
     1
 40
1.0
176
     1
  0
VISUALSTYLE
  5
C1
102
{ACAD_REACTORS
330
AE
102
}
330
AE
100
AcDbVisualStyle
  2
EdgeColorOff
 70
    22
177
     3
291
     1
 70
    58
 90
        2
176
     0
 90
        2
176
     0
 90
        0
176
     0
 90
        0
176
     0
 40
0.6
176
     0
 40
30.0
176
     0
 62
     7
420
 16777215
176
     0
 90
        1
176
     0
 90
        4
176
     0
 62
     7
176
     0
 62
   257
176
     0
 90
        1
176
     0
 90
        1
176
     0
 40
1.0
176
     0
 90
        8
176
     2
 62
     7
176
     0
 40
1.0
176
     0
 90
        1
176
     0
 90
        6
176
     0
 90
        2
176
     0
 62
     7
176
     0
 90
        5
176
     0
 90
        0
176
     0
 90
        0
176
     0
290
     0
176
     0
 90
        1
176
     0
 40
0.0
176
     0
 90
        0
176
     0
290
     0
176
     0
290
     1
176
     0
290
     1
176
     0
290
     0
176
     0
290
     0
176
     0
290
     0
176
     0
290
     0
176
     0
290
     0
176
     0
290
     0
176
     0
 90
       50
176
     0
 40
0.0
176
     0
 40
1.0
176
     0
 90
        0
176
     0
 62
    18
420
        0
176
     0
 90
       50
176
     0
 90
        3
176
     0
 62
     5
420
      255
176
     0
290
     0
176
     0
 90
       50
176
     0
 90
       50
176
     0
 90
       50
176
     0
290
     0
176
     0
 90
       50
176
     0
 62
   256
176
     0
 40
1.0
176
     0
 90
        2
176
     0
  1
strokes_ogs.tif
176
     0
290
     0
176
     0
 40
1.0
176
     0
 40
1.0
176
     0
  0
VISUALSTYLE
  5
BD
102
{ACAD_REACTORS
330
AE
102
}
330
AE
100
AcDbVisualStyle
  2
Facepattern
 70
    15
177
     3
291
     1
 70
    58
 90
        2
176
     1
 90
        2
176
     1
 90
        0
176
     1
 90
        0
176
     1
 40
0.6
176
     1
 40
30.0
176
     1
 62
     7
420
 16777215
176
     1
 90
        1
176
     1
 90
        4
176
     1
 62
     7
176
     1
 62
   257
176
     1
 90
        1
176
     1
 90
        1
176
     1
 40
1.0
176
     1
 90
        8
176
     1
 62
     7
176
     1
 40
1.0
176
     1
 90
        1
176
     1
 90
        6
176
     1
 90
        2
176
     1
 62
     7
176
     1
 90
        5
176
     1
 90
        0
176
     1
 90
        0
176
     1
290
     0
176
     1
 90
        1
176
     1
 40
0.0
176
     1
 90
        0
176
     1
290
     0
176
     1
290
     1
176
     1
290
     1
176
     1
290
     0
176
     1
290
     0
176
     1
290
     0
176
     1
290
     0
176
     1
290
     0
176
     1
290
     0
176
     1
 90
       50
176
     1
 40
0.0
176
     1
 40
1.0
176
     1
 90
        0
176
     1
 62
    18
420
        0
176
     1
 90
       50
176
     1
 90
        3
176
     1
 62
     5
420
      255
176
     1
290
     0
176
     1
 90
       50
176
     1
 90
       50
176
     1
 90
       50
176
     1
290
     0
176
     1
 90
       50
176
     1
 62
   256
176
     0
 40
1.0
176
     0
 90
        2
176
     1
  1
strokes_ogs.tif
176
     1
290
     0
176
     1
 40
1.0
176
     1
 40
1.0
176
     1
  0
VISUALSTYLE
  5
AF
102
{ACAD_REACTORS
330
AE
102
}
330
AE
100
AcDbVisualStyle
  2
Flat
 70
     0
177
     3
291
     1
 70
    58
 90
        2
176
     1
 90
        1
176
     1
 90
        1
176
     1
 90
        2
176
     1
 40
0.6
176
     1
 40
30.0
176
     1
 62
     7
420
 16777215
176
     1
 90
        0
176
     1
 90
        0
176
     1
 62
     7
176
     1
 62
   257
176
     1
 90
        1
176
     1
 90
        1
176
     1
 40
1.0
176
     1
 90
        8
176
     1
 62
     7
176
     1
 40
1.0
176
     1
 90
        1
176
     1
 90
        6
176
     1
 90
        2
176
     1
 62
     7
176
     1
 90
        5
176
     1
 90
        0
176
     1
 90
        0
176
     1
290
     0
176
     1
 90
       13
176
     1
 40
0.0
176
     1
 90
        0
176
     1
290
     0
176
     1
290
     1
176
     1
290
     1
176
     1
290
     0
176
     1
290
     0
176
     1
290
     0
176
     1
290
     0
176
     1
290
     0
176
     1
290
     0
176
     1
 90
       50
176
     1
 40
0.0
176
     1
 40
1.0
176
     1
 90
        0
176
     1
 62
    18
420
        0
176
     1
 90
       50
176
     1
 90
        3
176
     1
 62
     5
420
      255
176
     1
290
     0
176
     1
 90
       50
176
     1
 90
       50
176
     1
 90
       50
176
     1
290
     0
176
     1
 90
       50
176
     1
 62
   256
176
     0
 40
1.0
176
     0
 90
        2
176
     1
  1
strokes_ogs.tif
176
     1
290
     0
176
     1
 40
1.0
176
     1
 40
1.0
176
     1
  0
VISUALSTYLE
  5
B0
102
{ACAD_REACTORS
330
AE
102
}
330
AE
100
AcDbVisualStyle
  2
FlatWithEdges
 70
     1
177
     3
291
     1
 70
    58
 90
        2
176
     1
 90
        1
176
     1
 90
        1
176
     1
 90
        2
176
     1
 40
0.6
176
     1
 40
30.0
176
     1
 62
     7
420
 16777215
176
     1
 90
        1
176
     1
 90
        0
176
     1
 62
     7
176
     1
 62
   257
176
     1
 90
        1
176
     1
 90
        1
176
     1
 40
1.0
176
     1
 90
        0
176
     1
 62
   257
176
     1
 40
1.0
176
     1
 90
        1
176
     1
 90
        6
176
     1
 90
        2
176
     1
 62
     7
176
     1
 90
        5
176
     1
 90
        0
176
     1
 90
        0
176
     1
290
     0
176
     1
 90
       13
176
     1
 40
0.0
176
     1
 90
        0
176
     1
290
     0
176
     1
290
     1
176
     1
290
     1
176
     1
290
     0
176
     1
290
     0
176
     1
290
     0
176
     1
290
     0
176
     1
290
     0
176
     1
290
     0
176
     1
 90
       50
176
     1
 40
0.0
176
     1
 40
1.0
176
     1
 90
        0
176
     1
 62
    18
420
        0
176
     1
 90
       50
176
     1
 90
        3
176
     1
 62
     5
420
      255
176
     1
290
     0
176
     1
 90
       50
176
     1
 90
       50
176
     1
 90
       50
176
     1
290
     0
176
     1
 90
       50
176
     1
 62
   256
176
     0
 40
1.0
176
     0
 90
        2
176
     1
  1
strokes_ogs.tif
176
     1
290
     0
176
     1
 40
1.0
176
     1
 40
1.0
176
     1
  0
VISUALSTYLE
  5
B1
102
{ACAD_REACTORS
330
AE
102
}
330
AE
100
AcDbVisualStyle
  2
Gouraud
 70
     2
177
     3
291
     1
 70
    58
 90
        2
176
     1
 90
        2
176
     1
 90
        1
176
     1
 90
        2
176
     1
 40
0.6
176
     1
 40
30.0
176
     1
 62
     7
420
 16777215
176
     1
 90
        0
176
     1
 90
        0
176
     1
 62
     7
176
     1
 62
   257
176
     1
 90
        1
176
     1
 90
        1
176
     1
 40
1.0
176
     1
 90
        0
176
     1
 62
     7
176
     1
 40
1.0
176
     1
 90
        1
176
     1
 90
        6
176
     1
 90
        2
176
     1
 62
     7
176
     1
 90
        5
176
     1
 90
        0
176
     1
 90
        0
176
     1
290
     0
176
     1
 90
       13
176
     1
 40
0.0
176
     1
 90
        0
176
     1
290
     0
176
     1
290
     1
176
     1
290
     1
176
     1
290
     0
176
     1
290
     0
176
     1
290
     0
176
     1
290
     0
176
     1
290
     0
176
     1
290
     0
176
     1
 90
       50
176
     1
 40
0.0
176
     1
 40
1.0
176
     1
 90
        0
176
     1
 62
    18
420
        0
176
     1
 90
       50
176
     1
 90
        3
176
     1
 62
     5
420
      255
176
     1
290
     0
176
     1
 90
       50
176
     1
 90
       50
176
     1
 90
       50
176
     1
290
     0
176
     1
 90
       50
176
     1
 62
   256
176
     0
 40
1.0
176
     0
 90
        2
176
     1
  1
strokes_ogs.tif
176
     1
290
     0
176
     1
 40
1.0
176
     1
 40
1.0
176
     1
  0
VISUALSTYLE
  5
B2
102
{ACAD_REACTORS
330
AE
102
}
330
AE
100
AcDbVisualStyle
  2
GouraudWithEdges
 70
     3
177
     3
291
     1
 70
    58
 90
        2
176
     1
 90
        2
176
     1
 90
        1
176
     1
 90
        2
176
     1
 40
0.6
176
     1
 40
30.0
176
     1
 62
     7
420
 16777215
176
     1
 90
        1
176
     1
 90
        0
176
     1
 62
     7
176
     1
 62
   257
176
     1
 90
        1
176
     1
 90
        1
176
     1
 40
1.0
176
     1
 90
        0
176
     1
 62
   257
176
     1
 40
1.0
176
     1
 90
        1
176
     1
 90
        6
176
     1
 90
        2
176
     1
 62
     7
176
     1
 90
        5
176
     1
 90
        0
176
     1
 90
        0
176
     1
290
     0
176
     1
 90
       13
176
     1
 40
0.0
176
     1
 90
        0
176
     1
290
     0
176
     1
290
     1
176
     1
290
     1
176
     1
290
     0
176
     1
290
     0
176
     1
290
     0
176
     1
290
     0
176
     1
290
     0
176
     1
290
     0
176
     1
 90
       50
176
     1
 40
0.0
176
     1
 40
1.0
176
     1
 90
        0
176
     1
 62
    18
420
        0
176
     1
 90
       50
176
     1
 90
        3
176
     1
 62
     5
420
      255
176
     1
290
     0
176
     1
 90
       50
176
     1
 90
       50
176
     1
 90
       50
176
     1
290
     0
176
     1
 90
       50
176
     1
 62
   256
176
     0
 40
1.0
176
     0
 90
        2
176
     1
  1
strokes_ogs.tif
176
     1
290
     0
176
     1
 40
1.0
176
     1
 40
1.0
176
     1
  0
VISUALSTYLE
  5
B5
102
{ACAD_REACTORS
330
AE
102
}
330
AE
100
AcDbVisualStyle
  2
Hidden
 70
     6
177
     3
291
     0
 70
    58
 90
        1
176
     1
 90
        2
176
     1
 90
        2
176
     1
 90
        0
176
     1
 40
0.6
176
     1
 40
30.0
176
     1
 62
     7
420
 16777215
176
     1
 90
        2
176
     1
 90
        2
176
     1
 62
     7
176
     1
 62
   257
176
     1
 90
        2
176
     1
 90
        1
176
     1
 40
40.0
176
     1
 90
        0
176
     1
 62
   257
176
     1
 40
1.0
176
     1
 90
        1
176
     1
 90
        6
176
     1
 90
        2
176
     1
 62
     7
176
     1
 90
        3
176
     1
 90
        0
176
     1
 90
        0
176
     1
290
     0
176
     1
 90
        1
176
     1
 40
0.0
176
     1
 90
        0
176
     1
290
     0
176
     1
290
     1
176
     1
290
     1
176
     1
290
     0
176
     1
290
     0
176
     1
290
     0
176
     1
290
     0
176
     1
290
     0
176
     1
290
     0
176
     1
 90
       50
176
     1
 40
0.0
176
     1
 40
1.0
176
     1
 90
        0
176
     1
 62
    18
420
        0
176
     1
 90
       50
176
     1
 90
        3
176
     1
 62
     5
420
      255
176
     1
290
     0
176
     1
 90
       50
176
     1
 90
       50
176
     1
 90
       50
176
     1
290
     0
176
     1
 90
       50
176
     1
 62
   256
176
     0
 40
1.0
176
     0
 90
        2
176
     1
  1
strokes_ogs.tif
176
     1
290
     0
176
     1
 40
1.0
176
     1
 40
1.0
176
     1
  0
VISUALSTYLE
  5
BF
102
{ACAD_REACTORS
330
AE
102
}
330
AE
100
AcDbVisualStyle
  2
JitterOff
 70
    20
177
     3
291
     1
 70
    58
 90
        2
176
     0
 90
        2
176
     0
 90
        0
176
     0
 90
        0
176
     0
 40
0.6
176
     0
 40
30.0
176
     0
 62
     7
420
 16777215
176
     0
 90
        1
176
     0
 90
        4
176
     0
 62
     7
176
     0
 62
   257
176
     0
 90
        1
176
     0
 90
        1
176
     0
 40
1.0
176
     0
 90
       10
176
     2
 62
     7
176
     0
 40
1.0
176
     0
 90
        1
176
     0
 90
        6
176
     0
 90
        2
176
     0
 62
     7
176
     0
 90
        5
176
     0
 90
        0
176
     0
 90
        0
176
     0
290
     0
176
     0
 90
        1
176
     0
 40
0.0
176
     0
 90
        0
176
     0
290
     0
176
     0
290
     1
176
     0
290
     1
176
     0
290
     0
176
     0
290
     0
176
     0
290
     0
176
     0
290
     0
176
     0
290
     0
176
     0
290
     0
176
     0
 90
       50
176
     0
 40
0.0
176
     0
 40
1.0
176
     0
 90
        0
176
     0
 62
    18
420
        0
176
     0
 90
       50
176
     0
 90
        3
176
     0
 62
     5
420
      255
176
     0
290
     0
176
     0
 90
       50
176
     0
 90
       50
176
     0
 90
       50
176
     0
290
     0
176
     0
 90
       50
176
     0
 62
   256
176
     0
 40
1.0
176
     0
 90
        2
176
     0
  1
strokes_ogs.tif
176
     0
290
     0
176
     0
 40
1.0
176
     0
 40
1.0
176
     0
  0
VISUALSTYLE
  5
BC
102
{ACAD_REACTORS
330
AE
102
}
330
AE
100
AcDbVisualStyle
  2
Linepattern
 70
    14
177
     3
291
     1
 70
    58
 90
        2
176
     1
 90
        2
176
     1
 90
        0
176
     1
 90
        0
176
     1
 40
0.6
176
     1
 40
30.0
176
     1
 62
     7
420
 16777215
176
     1
 90
        1
176
     1
 90
        4
176
     1
 62
     7
176
     1
 62
   257
176
     1
 90
        7
176
     1
 90
        7
176
     1
 40
1.0
176
     1
 90
        8
176
     1
 62
     7
176
     1
 40
1.0
176
     1
 90
        1
176
     1
 90
        6
176
     1
 90
        2
176
     1
 62
     7
176
     1
 90
        5
176
     1
 90
        0
176
     1
 90
        0
176
     1
290
     0
176
     1
 90
        1
176
     1
 40
0.0
176
     1
 90
        0
176
     1
290
     0
176
     1
290
     1
176
     1
290
     1
176
     1
290
     0
176
     1
290
     0
176
     1
290
     0
176
     1
290
     0
176
     1
290
     0
176
     1
290
     0
176
     1
 90
       50
176
     1
 40
0.0
176
     1
 40
1.0
176
     1
 90
        0
176
     1
 62
    18
420
        0
176
     1
 90
       50
176
     1
 90
        3
176
     1
 62
     5
420
      255
176
     1
290
     0
176
     1
 90
       50
176
     1
 90
       50
176
     1
 90
       50
176
     1
290
     0
176
     1
 90
       50
176
     1
 62
   256
176
     0
 40
1.0
176
     0
 90
        2
176
     1
  1
strokes_ogs.tif
176
     1
290
     0
176
     1
 40
1.0
176
     1
 40
1.0
176
     1
  0
VISUALSTYLE
  5
C0
102
{ACAD_REACTORS
330
AE
102
}
330
AE
100
AcDbVisualStyle
  2
OverhangOff
 70
    21
177
     3
291
     1
 70
    58
 90
        2
176
     0
 90
        2
176
     0
 90
        0
176
     0
 90
        0
176
     0
 40
0.6
176
     0
 40
30.0
176
     0
 62
     7
420
 16777215
176
     0
 90
        1
176
     0
 90
        4
176
     0
 62
     7
176
     0
 62
   257
176
     0
 90
        1
176
     0
 90
        1
176
     0
 40
1.0
176
     0
 90
        9
176
     2
 62
     7
176
     0
 40
1.0
176
     0
 90
        1
176
     0
 90
        6
176
     0
 90
        2
176
     0
 62
     7
176
     0
 90
        5
176
     0
 90
        0
176
     0
 90
        0
176
     0
290
     0
176
     0
 90
        1
176
     0
 40
0.0
176
     0
 90
        0
176
     0
290
     0
176
     0
290
     1
176
     0
290
     1
176
     0
290
     0
176
     0
290
     0
176
     0
290
     0
176
     0
290
     0
176
     0
290
     0
176
     0
290
     0
176
     0
 90
       50
176
     0
 40
0.0
176
     0
 40
1.0
176
     0
 90
        0
176
     0
 62
    18
420
        0
176
     0
 90
       50
176
     0
 90
        3
176
     0
 62
     5
420
      255
176
     0
290
     0
176
     0
 90
       50
176
     0
 90
       50
176
     0
 90
       50
176
     0
290
     0
176
     0
 90
       50
176
     0
 62
   256
176
     0
 40
1.0
176
     0
 90
        2
176
     0
  1
strokes_ogs.tif
176
     0
290
     0
176
     0
 40
1.0
176
     0
 40
1.0
176
     0
  0
VISUALSTYLE
  5
B7
102
{ACAD_REACTORS
330
AE
102
}
330
AE
100
AcDbVisualStyle
  2
Realistic
 70
     8
177
     3
291
     0
 70
    58
 90
        2
176
     1
 90
        3
176
     1
 90
        0
176
     1
 90
        2
176
     1
 40
0.6
176
     1
 40
30.0
176
     1
 62
     7
420
 16777215
176
     1
 90
        0
176
     1
 90
        0
176
     1
 62
     7
176
     1
 62
   257
176
     1
 90
        1
176
     1
 90
        1
176
     1
 40
1.0
176
     1
 90
        8
176
     1
 62
   257
176
     1
 40
1.0
176
     1
 90
        1
176
     1
 90
        6
176
     1
 90
        2
176
     1
 62
     7
176
     1
 90
        3
176
     1
 90
        0
176
     1
 90
        0
176
     1
290
     0
176
     1
 90
       13
176
     1
 40
0.0
176
     1
 90
        0
176
     1
290
     0
176
     1
290
     1
176
     1
290
     1
176
     1
290
     0
176
     1
290
     0
176
     1
290
     0
176
     1
290
     0
176
     1
290
     0
176
     1
290
     0
176
     1
 90
       50
176
     1
 40
0.0
176
     1
 40
1.0
176
     1
 90
        0
176
     1
 62
    18
420
        0
176
     1
 90
       50
176
     1
 90
        3
176
     1
 62
     5
420
      255
176
     1
290
     0
176
     1
 90
       50
176
     1
 90
       50
176
     1
 90
       50
176
     1
290
     0
176
     1
 90
       50
176
     1
 62
   256
176
     0
 40
1.0
176
     0
 90
        2
176
     1
  1
strokes_ogs.tif
176
     1
290
     0
176
     1
 40
1.0
176
     1
 40
1.0
176
     1
  0
VISUALSTYLE
  5
C6
102
{ACAD_REACTORS
330
AE
102
}
330
AE
100
AcDbVisualStyle
  2
Shaded
 70
    27
177
     3
291
     0
 70
    58
 90
        2
176
     1
 90
        2
176
     1
 90
        1
176
     1
 90
        2
176
     1
 40
0.6
176
     1
 40
30.0
176
     1
 62
     7
420
 16777215
176
     1
 90
        0
176
     1
 90
        4
176
     1
 62
     7
176
     1
 62
   257
176
     1
 90
        1
176
     1
 90
        1
176
     1
 40
1.0
176
     1
 90
        8
176
     1
 62
   257
176
     1
 40
1.0
176
     1
 90
        1
176
     1
 90
        6
176
     1
 90
        2
176
     1
 62
     8
420
  7895160
176
     1
 90
        3
176
     1
 90
        0
176
     1
 90
        0
176
     1
290
     0
176
     1
 90
        5
176
     1
 40
0.0
176
     1
 90
        0
176
     1
290
     0
176
     1
290
     1
176
     1
290
     1
176
     1
290
     0
176
     1
290
     0
176
     1
290
     0
176
     1
290
     0
176
     1
290
     0
176
     1
290
     0
176
     1
 90
       50
176
     1
 40
0.0
176
     1
 40
1.0
176
     1
 90
        0
176
     1
 62
    18
420
        0
176
     1
 90
       50
176
     1
 90
        3
176
     1
 62
     5
420
      255
176
     1
290
     0
176
     1
 90
       50
176
     1
 90
       50
176
     1
 90
       50
176
     1
290
     0
176
     1
 90
       50
176
     1
 62
   256
176
     0
 40
1.0
176
     0
 90
        2
176
     1
  1
strokes_ogs.tif
176
     1
290
     0
176
     1
 40
1.0
176
     1
 40
1.0
176
     1
  0
VISUALSTYLE
  5
C5
102
{ACAD_REACTORS
330
AE
102
}
330
AE
100
AcDbVisualStyle
  2
Shaded with edges
 70
    26
177
     3
291
     0
 70
    58
 90
        2
176
     1
 90
        2
176
     1
 90
        1
176
     1
 90
        2
176
     1
 40
0.6
176
     1
 40
30.0
176
     1
 62
     7
420
 16777215
176
     1
 90
        1
176
     1
 90
       10
176
     1
 62
     7
176
     1
 62
   257
176
     1
 90
        2
176
     1
 90
        1
176
     1
 40
1.0
176
     1
 90
        8
176
     1
 62
   257
176
     1
 40
1.0
176
     1
 90
        1
176
     1
 90
        6
176
     1
 90
        2
176
     1
 62
     7
176
     1
 90
        3
176
     1
 90
        0
176
     1
 90
        0
176
     1
290
     0
176
     1
 90
        5
176
     1
 40
0.0
176
     1
 90
        0
176
     1
290
     0
176
     1
290
     1
176
     1
290
     1
176
     1
290
     0
176
     1
290
     0
176
     1
290
     0
176
     1
290
     0
176
     1
290
     0
176
     1
290
     0
176
     1
 90
       50
176
     1
 40
0.0
176
     1
 40
1.0
176
     1
 90
        0
176
     1
 62
    18
420
        0
176
     1
 90
       50
176
     1
 90
        3
176
     1
 62
     5
420
      255
176
     1
290
     0
176
     1
 90
       50
176
     1
 90
       50
176
     1
 90
       50
176
     1
290
     0
176
     1
 90
       50
176
     1
 62
   256
176
     0
 40
1.0
176
     0
 90
        2
176
     1
  1
strokes_ogs.tif
176
     1
290
     0
176
     1
 40
1.0
176
     1
 40
1.0
176
     1
  0
VISUALSTYLE
  5
C2
102
{ACAD_REACTORS
330
AE
102
}
330
AE
100
AcDbVisualStyle
  2
Shades of Gray
 70
    23
177
     3
291
     0
 70
    58
 90
        2
176
     1
 90
        2
176
     1
 90
        3
176
     1
 90
        0
176
     1
 40
0.6
176
     1
 40
30.0
176
     1
 62
     7
420
 16777215
176
     1
 90
        2
176
     1
 90
        2
176
     1
 62
     7
176
     1
 62
     7
176
     1
 90
        1
176
     1
 90
        1
176
     1
 40
40.0
176
     1
 90
        8
176
     1
 62
     7
176
     1
 40
1.0
176
     1
 90
        1
176
     1
 90
        6
176
     1
 90
        2
176
     1
 62
     7
176
     1
 90
        3
176
     1
 90
        0
176
     1
 90
        0
176
     1
290
     0
176
     1
 90
        1
176
     1
 40
0.0
176
     1
 90
        0
176
     1
290
     0
176
     1
290
     1
176
     1
290
     1
176
     1
290
     0
176
     1
290
     0
176
     1
290
     0
176
     1
290
     0
176
     1
290
     0
176
     1
290
     0
176
     1
 90
       50
176
     1
 40
0.0
176
     1
 40
1.0
176
     1
 90
        0
176
     1
 62
    18
420
        0
176
     1
 90
       50
176
     1
 90
        3
176
     1
 62
     5
420
      255
176
     1
290
     0
176
     1
 90
       50
176
     1
 90
       50
176
     1
 90
       50
176
     1
290
     0
176
     1
 90
       50
176
     1
 62
   256
176
     0
 40
1.0
176
     0
 90
        2
176
     1
  1
strokes_ogs.tif
176
     1
290
     0
176
     1
 40
1.0
176
     1
 40
1.0
176
     1
  0
VISUALSTYLE
  5
C3
102
{ACAD_REACTORS
330
AE
102
}
330
AE
100
AcDbVisualStyle
  2
Sketchy
 70
    24
177
     3
291
     0
 70
    58
 90
        1
176
     1
 90
        2
176
     1
 90
        2
176
     1
 90
        0
176
     1
 40
0.6
176
     1
 40
30.0
176
     1
 62
     7
420
 16777215
176
     1
 90
        2
176
     1
 90
        2
176
     1
 62
     7
176
     1
 62
     7
176
     1
 90
        1
176
     1
 90
        1
176
     1
 40
40.0
176
     1
 90
       11
176
     1
 62
     7
176
     1
 40
1.0
176
     1
 90
        1
176
     1
 90
        6
176
     1
 90
        2
176
     1
 62
     7
176
     1
 90
        6
176
     1
 90
        0
176
     1
 90
        0
176
     1
290
     0
176
     1
 90
        1
176
     1
 40
0.0
176
     1
 90
        0
176
     1
290
     0
176
     1
290
     1
176
     1
290
     1
176
     1
290
     0
176
     1
290
     0
176
     1
290
     0
176
     1
290
     0
176
     1
290
     0
176
     1
290
     0
176
     1
 90
       50
176
     1
 40
0.0
176
     1
 40
1.0
176
     1
 90
        0
176
     1
 62
    18
420
        0
176
     1
 90
       50
176
     1
 90
        3
176
     1
 62
     5
420
      255
176
     1
290
     0
176
     1
 90
       50
176
     1
 90
       50
176
     1
 90
       50
176
     1
290
     0
176
     1
 90
       50
176
     1
 62
   256
176
     0
 40
1.0
176
     0
 90
        2
176
     1
  1
strokes_ogs.tif
176
     1
290
     0
176
     1
 40
1.0
176
     1
 40
1.0
176
     1
  0
VISUALSTYLE
  5
BB
102
{ACAD_REACTORS
330
AE
102
}
330
AE
100
AcDbVisualStyle
  2
Thicken
 70
    13
177
     3
291
     1
 70
    58
 90
        2
176
     1
 90
        2
176
     1
 90
        0
176
     1
 90
        0
176
     1
 40
0.6
176
     1
 40
30.0
176
     1
 62
     7
420
 16777215
176
     1
 90
        1
176
     1
 90
        4
176
     1
 62
     7
176
     1
 62
   257
176
     1
 90
        1
176
     1
 90
        1
176
     1
 40
1.0
176
     1
 90
       12
176
     1
 62
     7
176
     1
 40
1.0
176
     1
 90
        1
176
     1
 90
        6
176
     1
 90
        2
176
     1
 62
     7
176
     1
 90
        5
176
     1
 90
        0
176
     1
 90
        0
176
     1
290
     0
176
     1
 90
        1
176
     1
 40
0.0
176
     1
 90
        0
176
     1
290
     0
176
     1
290
     1
176
     1
290
     1
176
     1
290
     0
176
     1
290
     0
176
     1
290
     0
176
     1
290
     0
176
     1
290
     0
176
     1
290
     0
176
     1
 90
       50
176
     1
 40
0.0
176
     1
 40
1.0
176
     1
 90
        0
176
     1
 62
    18
420
        0
176
     1
 90
       50
176
     1
 90
        3
176
     1
 62
     5
420
      255
176
     1
290
     0
176
     1
 90
       50
176
     1
 90
       50
176
     1
 90
       50
176
     1
290
     0
176
     1
 90
       50
176
     1
 62
   256
176
     0
 40
1.0
176
     0
 90
        2
176
     1
  1
strokes_ogs.tif
176
     1
290
     0
176
     1
 40
1.0
176
     1
 40
1.0
176
     1
  0
VISUALSTYLE
  5
B4
102
{ACAD_REACTORS
330
AE
102
}
330
AE
100
AcDbVisualStyle
  2
Wireframe
 70
     5
177
     3
291
     0
 70
    58
 90
        0
176
     1
 90
        2
176
     1
 90
        0
176
     1
 90
        0
176
     1
 40
0.6
176
     1
 40
30.0
176
     1
 62
     7
420
 16777215
176
     1
 90
        1
176
     1
 90
        4
176
     1
 62
     7
176
     1
 62
   257
176
     1
 90
        1
176
     1
 90
        1
176
     1
 40
1.0
176
     1
 90
        0
176
     1
 62
   257
176
     1
 40
1.0
176
     1
 90
        1
176
     1
 90
        6
176
     1
 90
        2
176
     1
 62
     7
176
     1
 90
        3
176
     1
 90
        0
176
     1
 90
        0
176
     1
290
     0
176
     1
 90
        1
176
     1
 40
0.0
176
     1
 90
        0
176
     1
290
     0
176
     1
290
     1
176
     1
290
     1
176
     1
290
     0
176
     1
290
     0
176
     1
290
     0
176
     1
290
     0
176
     1
290
     0
176
     1
290
     0
176
     1
 90
       50
176
     1
 40
0.0
176
     1
 40
1.0
176
     1
 90
        0
176
     1
 62
    18
420
        0
176
     1
 90
       50
176
     1
 90
        3
176
     1
 62
     5
420
      255
176
     1
290
     0
176
     1
 90
       50
176
     1
 90
       50
176
     1
 90
       50
176
     1
290
     0
176
     1
 90
       50
176
     1
 62
   256
176
     0
 40
1.0
176
     0
 90
        2
176
     1
  1
strokes_ogs.tif
176
     1
290
     0
176
     1
 40
1.0
176
     1
 40
1.0
176
     1
  0
VISUALSTYLE
  5
C4
102
{ACAD_REACTORS
330
AE
102
}
330
AE
100
AcDbVisualStyle
  2
X-Ray
 70
    25
177
     3
291
     0
 70
    58
 90
        2
176
     1
 90
        2
176
     1
 90
        1
176
     1
 90
        1
176
     1
 40
0.5
176
     1
 40
30.0
176
     1
 62
     7
420
 16777215
176
     1
 90
        1
176
     1
 90
        0
176
     1
 62
     7
176
     1
 62
   257
176
     1
 90
        1
176
     1
 90
        1
176
     1
 40
1.0
176
     1
 90
        8
176
     1
 62
     7
176
     1
 40
1.0
176
     1
 90
        1
176
     1
 90
        6
176
     1
 90
        2
176
     1
 62
     7
176
     1
 90
        3
176
     1
 90
        0
176
     1
 90
        0
176
     1
290
     0
176
     1
 90
       13
176
     1
 40
0.0
176
     1
 90
        0
176
     1
290
     0
176
     1
290
     1
176
     1
290
     1
176
     1
290
     0
176
     1
290
     0
176
     1
290
     0
176
     1
290
     0
176
     1
290
     0
176
     1
290
     0
176
     1
 90
       50
176
     1
 40
0.0
176
     1
 40
1.0
176
     1
 90
        0
176
     1
 62
    18
420
        0
176
     1
 90
       50
176
     1
 90
        3
176
     1
 62
     5
420
      255
176
     1
290
     0
176
     1
 90
       50
176
     1
 90
       50
176
     1
 90
       50
176
     1
290
     0
176
     1
 90
       50
176
     1
 62
   256
176
     0
 40
1.0
176
     0
 90
        2
176
     1
  1
strokes_ogs.tif
176
     1
290
     0
176
     1
 40
1.0
176
     1
 40
1.0
176
     1
  0
DICTIONARYVAR
  5
E0
102
{ACAD_REACTORS
330
DF
102
}
330
DF
100
DictionaryVariables
280
     0
  1
1:1
  0
DICTIONARYVAR
  5
E2
102
{ACAD_REACTORS
330
DF
102
}
330
DF
100
DictionaryVariables
280
     0
  1
Standard
  0
DICTIONARYVAR
  5
E1
102
{ACAD_REACTORS
330
DF
102
}
330
DF
100
DictionaryVariables
280
     0
  1
Standard
  0
DICTIONARYVAR
  5
E3
102
{ACAD_REACTORS
330
DF
102
}
330
DF
100
DictionaryVariables
280
     0
  1
0
  0
DICTIONARY
  5
E6
330
CC
100
AcDbDictionary
280
     1
281
     1
  3
ACAD_ROUNDTRIP_2008_TABLESTYLE_CELLSTYLEMAP
360
E7
  0
CELLSTYLEMAP
  5
E7
102
{ACAD_REACTORS
330
E6
102
}
330
E6
100
AcDbCellStyleMap
 90
        3
300
CELLSTYLE
  1
TABLEFORMAT_BEGIN
 90
        5
170
     1
 91
        0
 92
    32768
 62
   257
 93
        1
300
CONTENTFORMAT
  1
CONTENTFORMAT_BEGIN
 90
        0
 91
        0
 92
        4
 93
        0
300

 40
0.0
140
1.0
 94
        5
 62
     0
340
11
144
6.0
309
CONTENTFORMAT_END
171
     1
301
MARGIN
  1
CELLMARGIN_BEGIN
 40
1.5
 40
1.5
 40
1.5
 40
1.5
 40
1.5
 40
1.5
309
CELLMARGIN_END
 94
        6
 95
        1
302
GRIDFORMAT
  1
GRIDFORMAT_BEGIN
 90
        0
 91
        1
 62
     0
 92
       -2
340
14
 93
        0
 40
0.045
309
GRIDFORMAT_END
 95
        2
302
GRIDFORMAT
  1
GRIDFORMAT_BEGIN
 90
        0
 91
        1
 62
     0
 92
       -2
340
14
 93
        0
 40
0.045
309
GRIDFORMAT_END
 95
        4
302
GRIDFORMAT
  1
GRIDFORMAT_BEGIN
 90
        0
 91
        1
 62
     0
 92
       -2
340
14
 93
        0
 40
0.045
309
GRIDFORMAT_END
 95
        8
302
GRIDFORMAT
  1
GRIDFORMAT_BEGIN
 90
        0
 91
        1
 62
     0
 92
       -2
340
14
 93
        0
 40
0.045
309
GRIDFORMAT_END
 95
       16
302
GRIDFORMAT
  1
GRIDFORMAT_BEGIN
 90
        0
 91
        1
 62
     0
 92
       -2
340
14
 93
        0
 40
0.045
309
GRIDFORMAT_END
 95
       32
302
GRIDFORMAT
  1
GRIDFORMAT_BEGIN
 90
        0
 91
        1
 62
     0
 92
       -2
340
14
 93
        0
 40
0.045
309
GRIDFORMAT_END
309
TABLEFORMAT_END
  1
CELLSTYLE_BEGIN
 90
        1
 91
        1
300
_TITLE
309
CELLSTYLE_END
300
CELLSTYLE
  1
TABLEFORMAT_BEGIN
 90
        5
170
     1
 91
        0
 92
        0
 62
   257
 93
        1
300
CONTENTFORMAT
  1
CONTENTFORMAT_BEGIN
 90
        0
 91
        0
 92
        4
 93
        0
300

 40
0.0
140
1.0
 94
        5
 62
     0
340
11
144
4.5
309
CONTENTFORMAT_END
171
     1
301
MARGIN
  1
CELLMARGIN_BEGIN
 40
1.5
 40
1.5
 40
1.5
 40
1.5
 40
1.5
 40
1.5
309
CELLMARGIN_END
 94
        6
 95
        1
302
GRIDFORMAT
  1
GRIDFORMAT_BEGIN
 90
        0
 91
        1
 62
     0
 92
       -2
340
14
 93
        0
 40
0.045
309
GRIDFORMAT_END
 95
        2
302
GRIDFORMAT
  1
GRIDFORMAT_BEGIN
 90
        0
 91
        1
 62
     0
 92
       -2
340
14
 93
        0
 40
0.045
309
GRIDFORMAT_END
 95
        4
302
GRIDFORMAT
  1
GRIDFORMAT_BEGIN
 90
        0
 91
        1
 62
     0
 92
       -2
340
14
 93
        0
 40
0.045
309
GRIDFORMAT_END
 95
        8
302
GRIDFORMAT
  1
GRIDFORMAT_BEGIN
 90
        0
 91
        1
 62
     0
 92
       -2
340
14
 93
        0
 40
0.045
309
GRIDFORMAT_END
 95
       16
302
GRIDFORMAT
  1
GRIDFORMAT_BEGIN
 90
        0
 91
        1
 62
     0
 92
       -2
340
14
 93
        0
 40
0.045
309
GRIDFORMAT_END
 95
       32
302
GRIDFORMAT
  1
GRIDFORMAT_BEGIN
 90
        0
 91
        1
 62
     0
 92
       -2
340
14
 93
        0
 40
0.045
309
GRIDFORMAT_END
309
TABLEFORMAT_END
  1
CELLSTYLE_BEGIN
 90
        2
 91
        1
300
_HEADER
309
CELLSTYLE_END
300
CELLSTYLE
  1
TABLEFORMAT_BEGIN
 90
        5
170
     1
 91
        0
 92
        0
 62
   257
 93
        1
300
CONTENTFORMAT
  1
CONTENTFORMAT_BEGIN
 90
        0
 91
        0
 92
        4
 93
        0
300

 40
0.0
140
1.0
 94
        2
 62
     0
340
11
144
4.5
309
CONTENTFORMAT_END
171
     1
301
MARGIN
  1
CELLMARGIN_BEGIN
 40
1.5
 40
1.5
 40
1.5
 40
1.5
 40
1.5
 40
1.5
309
CELLMARGIN_END
 94
        6
 95
        1
302
GRIDFORMAT
  1
GRIDFORMAT_BEGIN
 90
        0
 91
        1
 62
     0
 92
       -2
340
14
 93
        0
 40
0.045
309
GRIDFORMAT_END
 95
        2
302
GRIDFORMAT
  1
GRIDFORMAT_BEGIN
 90
        0
 91
        1
 62
     0
 92
       -2
340
14
 93
        0
 40
0.045
309
GRIDFORMAT_END
 95
        4
302
GRIDFORMAT
  1
GRIDFORMAT_BEGIN
 90
        0
 91
        1
 62
     0
 92
       -2
340
14
 93
        0
 40
0.045
309
GRIDFORMAT_END
 95
        8
302
GRIDFORMAT
  1
GRIDFORMAT_BEGIN
 90
        0
 91
        1
 62
     0
 92
       -2
340
14
 93
        0
 40
0.045
309
GRIDFORMAT_END
 95
       16
302
GRIDFORMAT
  1
GRIDFORMAT_BEGIN
 90
        0
 91
        1
 62
     0
 92
       -2
340
14
 93
        0
 40
0.045
309
GRIDFORMAT_END
 95
       32
302
GRIDFORMAT
  1
GRIDFORMAT_BEGIN
 90
        0
 91
        1
 62
     0
 92
       -2
340
14
 93
        0
 40
0.045
309
GRIDFORMAT_END
309
TABLEFORMAT_END
  1
CELLSTYLE_BEGIN
 90
        3
 91
        2
300
_DATA
309
CELLSTYLE_END
  0
ENDSEC
  0
EOF
