  0
SECTION
  2
HEADER
  9
$ACADVER
  1
AC1032
  9
$ACADMAINTVER
 90
        4
  9
$DWGCODEPAGE
  3
ANSI_932
  9
$LASTSAVEDBY
  1
9128
  9
$REQUIREDVERSIONS
160
                 0
  9
$INSBASE
 10
0.0
 20
0.0
 30
0.0
  9
$EXTMIN
 10
76.86083037158139
 20
74.9571870524389
 30
0.0
  9
$EXTMAX
 10
192.1879919582655
 20
223.6344130959814
 30
0.0
  9
$LIMMIN
 10
0.0
 20
0.0
  9
$LIMMAX
 10
0.0
 20
0.0
  9
$ORTHOMODE
 70
     0
  9
$REGENMODE
 70
     1
  9
$FILLMODE
 70
     1
  9
$QTEXTMODE
 70
     0
  9
$MIRRTEXT
 70
     1
  9
$LTSCALE
 40
5.08
  9
$ATTMODE
 70
     1
  9
$TEXTSIZE
 40
0.0
  9
$TRACEWID
 40
1.0
  9
$TEXTSTYLE
  7
Standard
  9
$CLAYER
  8
0
  9
$CELTYPE
  6
Continuous
  9
$CECOLOR
 62
   256
  9
$CELTSCALE
 40
1.0
  9
$DISPSILH
 70
     0
  9
$DIMSCALE
 40
1.0
  9
$DIMASZ
 40
0.18
  9
$DIMEXO
 40
0.0625
  9
$DIMDLI
 40
0.38
  9
$DIMRND
 40
0.0
  9
$DIMDLE
 40
0.0
  9
$DIMEXE
 40
0.18
  9
$DIMTP
 40
0.0
  9
$DIMTM
 40
0.0
  9
$DIMTXT
 40
0.18
  9
$DIMCEN
 40
0.09
  9
$DIMTSZ
 40
0.0
  9
$DIMTOL
 70
     0
  9
$DIMLIM
 70
     0
  9
$DIMTIH
 70
     1
  9
$DIMTOH
 70
     1
  9
$DIMSE1
 70
     0
  9
$DIMSE2
 70
     0
  9
$DIMTAD
 70
     0
  9
$DIMZIN
 70
     0
  9
$DIMBLK
  1

  9
$DIMASO
 70
     1
  9
$DIMSHO
 70
     1
  9
$DIMPOST
  1

  9
$DIMAPOST
  1

  9
$DIMALT
 70
     0
  9
$DIMALTD
 70
     2
  9
$DIMALTF
 40
25.4
  9
$DIMLFAC
 40
1.0
  9
$DIMTOFL
 70
     0
  9
$DIMTVP
 40
0.0
  9
$DIMTIX
 70
     0
  9
$DIMSOXD
 70
     0
  9
$DIMSAH
 70
     0
  9
$DIMBLK1
  1

  9
$DIMBLK2
  1

  9
$DIMSTYLE
  2
Standard
  9
$DIMCLRD
 70
     0
  9
$DIMCLRE
 70
     0
  9
$DIMCLRT
 70
     0
  9
$DIMTFAC
 40
1.0
  9
$DIMGAP
 40
0.09
  9
$DIMJUST
 70
     0
  9
$DIMSD1
 70
     0
  9
$DIMSD2
 70
     0
  9
$DIMTOLJ
 70
     1
  9
$DIMTZIN
 70
     0
  9
$DIMALTZ
 70
     0
  9
$DIMALTTZ
 70
     0
  9
$DIMUPT
 70
     0
  9
$DIMDEC
 70
     4
  9
$DIMTDEC
 70
     4
  9
$DIMALTU
 70
     2
  9
$DIMALTTD
 70
     2
  9
$DIMTXSTY
  7
Standard
  9
$DIMAUNIT
 70
     0
  9
$DIMADEC
 70
     0
  9
$DIMALTRND
 40
0.0
  9
$DIMAZIN
 70
     0
  9
$DIMDSEP
 70
     0
  9
$DIMATFIT
 70
     3
  9
$DIMFRAC
 70
     0
  9
$DIMLDRBLK
  1

  9
$DIMLUNIT
 70
     2
  9
$DIMLWD
 70
     0
  9
$DIMLWE
 70
     0
  9
$DIMTMOVE
 70
     0
  9
$DIMFXL
 40
1.0
  9
$DIMFXLON
 70
     0
  9
$DIMJOGANG
 40
0.7853981633974483
  9
$DIMTFILL
 70
     0
  9
$DIMTFILLCLR
 70
     0
  9
$DIMARCSYM
 70
     0
  9
$DIMLTYPE
  6

  9
$DIMLTEX1
  6

  9
$DIMLTEX2
  6

  9
$DIMTXTDIRECTION
 70
     0
  9
$LUNITS
 70
     2
  9
$LUPREC
 70
     4
  9
$SKETCHINC
 40
0.1
  9
$FILLETRAD
 40
0.0
  9
$AUNITS
 70
     0
  9
$AUPREC
 70
     0
  9
$MENU
  1
acad
  9
$ELEVATION
 40
0.0
  9
$PELEVATION
 40
0.0
  9
$THICKNESS
 40
0.0
  9
$LIMCHECK
 70
     0
  9
$CHAMFERA
 40
0.0
  9
$CHAMFERB
 40
0.0
  9
$CHAMFERC
 40
0.0
  9
$CHAMFERD
 40
0.0
  9
$SKPOLY
 70
     0
  9
$TDCREATE
 40
2447893.375
  9
$TDUCREATE
 40
0.0
  9
$TDUPDATE
 40
2458914.390465127
  9
$TDUUPDATE
 40
2458914.015465127
  9
$TDINDWG
 40
0.0135150463
  9
$TDUSRTIMER
 40
0.0000672454
  9
$USRTIMER
 70
     1
  9
$ANGBASE
 50
0.0
  9
$ANGDIR
 70
     0
  9
$PDMODE
 70
     1
  9
$PDSIZE
 40
-2.0
  9
$PLINEWID
 40
0.0
  9
$SPLFRAME
 70
     0
  9
$SPLINETYPE
 70
     6
  9
$SPLINESEGS
 70
     8
  9
$HANDSEED
  5
206
  9
$SURFTAB1
 70
     6
  9
$SURFTAB2
 70
     6
  9
$SURFTYPE
 70
     6
  9
$SURFU
 70
     6
  9
$SURFV
 70
     6
  9
$UCSBASE
  2

  9
$UCSNAME
  2

  9
$UCSORG
 10
0.0
 20
0.0
 30
0.0
  9
$UCSXDIR
 10
1.0
 20
0.0
 30
0.0
  9
$UCSYDIR
 10
0.0
 20
1.0
 30
0.0
  9
$UCSORTHOREF
  2

  9
$UCSORTHOVIEW
 70
     0
  9
$UCSORGTOP
 10
0.0
 20
0.0
 30
0.0
  9
$UCSORGBOTTOM
 10
0.0
 20
0.0
 30
0.0
  9
$UCSORGLEFT
 10
0.0
 20
0.0
 30
0.0
  9
$UCSORGRIGHT
 10
0.0
 20
0.0
 30
0.0
  9
$UCSORGFRONT
 10
0.0
 20
0.0
 30
0.0
  9
$UCSORGBACK
 10
0.0
 20
0.0
 30
0.0
  9
$PUCSBASE
  2

  9
$PUCSNAME
  2

  9
$PUCSORG
 10
0.0
 20
0.0
 30
0.0
  9
$PUCSXDIR
 10
1.0
 20
0.0
 30
0.0
  9
$PUCSYDIR
 10
0.0
 20
1.0
 30
0.0
  9
$PUCSORTHOREF
  2

  9
$PUCSORTHOVIEW
 70
     0
  9
$PUCSORGTOP
 10
0.0
 20
0.0
 30
0.0
  9
$PUCSORGBOTTOM
 10
0.0
 20
0.0
 30
0.0
  9
$PUCSORGLEFT
 10
0.0
 20
0.0
 30
0.0
  9
$PUCSORGRIGHT
 10
0.0
 20
0.0
 30
0.0
  9
$PUCSORGFRONT
 10
0.0
 20
0.0
 30
0.0
  9
$PUCSORGBACK
 10
0.0
 20
0.0
 30
0.0
  9
$USERI1
 70
     0
  9
$USERI2
 70
     0
  9
$USERI3
 70
     0
  9
$USERI4
 70
     0
  9
$USERI5
 70
     0
  9
$USERR1
 40
0.0
  9
$USERR2
 40
0.0
  9
$USERR3
 40
0.0
  9
$USERR4
 40
0.0
  9
$USERR5
 40
0.0
  9
$WORLDVIEW
 70
     1
  9
$SHADEDGE
 70
     3
  9
$SHADEDIF
 70
    70
  9
$TILEMODE
 70
     1
  9
$MAXACTVP
 70
    16
  9
$PINSBASE
 10
0.0
 20
0.0
 30
0.0
  9
$PLIMCHECK
 70
     0
  9
$PEXTMIN
 10
1.000000000000000E+20
 20
1.000000000000000E+20
 30
1.000000000000000E+20
  9
$PEXTMAX
 10
-1.000000000000000E+20
 20
-1.000000000000000E+20
 30
-1.000000000000000E+20
  9
$PLIMMIN
 10
0.0
 20
0.0
  9
$PLIMMAX
 10
0.0
 20
0.0
  9
$UNITMODE
 70
     0
  9
$VISRETAIN
 70
     0
  9
$PLINEGEN
 70
     1
  9
$PSLTSCALE
 70
     0
  9
$TREEDEPTH
 70
  3020
  9
$CMLSTYLE
  2
Standard
  9
$CMLJUST
 70
     0
  9
$CMLSCALE
 40
1.0
  9
$PROXYGRAPHICS
 70
     0
  9
$MEASUREMENT
 70
     1
  9
$CELWEIGHT
370
     0
  9
$ENDCAPS
280
     0
  9
$JOINSTYLE
280
     0
  9
$LWDISPLAY
290
     1
  9
$INSUNITS
 70
     4
  9
$HYPERLINKBASE
  1

  9
$STYLESHEET
  1

  9
$XEDIT
290
     1
  9
$CEPSNTYPE
380
     0
  9
$PSTYLEMODE
290
     1
  9
$FINGERPRINTGUID
  2

  9
$VERSIONGUID
  2

  9
$EXTNAMES
290
     1
  9
$PSVPSCALE
 40
0.0
  9
$OLESTARTUP
290
     0
  9
$SORTENTS
280
   127
  9
$INDEXCTL
280
     0
  9
$HIDETEXT
280
     1
  9
$XCLIPFRAME
280
     2
  9
$HALOGAP
280
     0
  9
$OBSCOLOR
 70
   257
  9
$OBSLTYPE
280
     0
  9
$INTERSECTIONDISPLAY
280
     0
  9
$INTERSECTIONCOLOR
 70
   257
  9
$DIMASSOC
280
     2
  9
$PROJECTNAME
  1

  9
$CAMERADISPLAY
290
     0
  9
$LENSLENGTH
 40
50.0
  9
$CAMERAHEIGHT
 40
0.0
  9
$STEPSPERSEC
 40
2.0
  9
$STEPSIZE
 40
6.0
  9
$3DDWFPREC
 40
2.0
  9
$PSOLWIDTH
 40
0.25
  9
$PSOLHEIGHT
 40
4.0
  9
$LOFTANG1
 40
1.570796326794897
  9
$LOFTANG2
 40
1.570796326794897
  9
$LOFTMAG1
 40
0.0
  9
$LOFTMAG2
 40
0.0
  9
$LOFTPARAM
 70
     7
  9
$LOFTNORMALS
280
     1
  9
$LATITUDE
 40
37.795
  9
$LONGITUDE
 40
-122.394
  9
$NORTHDIRECTION
 40
0.0
  9
$TIMEZONE
 70
 -8000
  9
$LIGHTGLYPHDISPLAY
280
     1
  9
$TILEMODELIGHTSYNCH
280
     1
  9
$SOLIDHIST
280
     0
  9
$SHOWHIST
280
     1
  9
$DWFFRAME
280
     2
  9
$DGNFRAME
280
     2
  9
$REALWORLDSCALE
290
     1
  9
$INTERFERECOLOR
 62
   256
  9
$CSHADOW
280
     0
  9
$SHADOWPLANELOCATION
 40
0.0
  0
ENDSEC
  0
SECTION
  2
CLASSES
  0
CLASS
  1
LWPOLYLINE
  2
AcDbPolyline
  3
ObjectDBX Classes
 90
        0
 91
        1
280
     0
281
     1
  0
CLASS
  1
IMAGE
  2
AcDbRasterImage
  3
ISM
 90
      127
 91
        4
280
     0
281
     1
  0
CLASS
  1
OLE2FRAME
  2
AcDbOle2Frame
  3
ObjectDBX Classes
 90
        0
 91
        1
280
     0
281
     1
  0
CLASS
  1
HATCH
  2
AcDbHatch
  3
ObjectDBX Classes
 90
        0
 91
        1
280
     0
281
     1
  0
CLASS
  1
DICTIONARYVAR
  2
AcDbDictionaryVar
  3
ObjectDBX Classes
 90
        0
 91
        3
280
     0
281
     0
  0
CLASS
  1
RASTERVARIABLES
  2
AcDbRasterVariables
  3
ISM
 90
        0
 91
        3
280
     0
281
     0
  0
CLASS
  1
IMAGEDEF
  2
AcDbRasterImageDef
  3
ISM
 90
        0
 91
        3
280
     0
281
     0
  0
CLASS
  1
IMAGEDEF_REACTOR
  2
AcDbRasterImageDefReactor
  3
ISM
 90
        1
 91
        3
280
     0
281
     0
  0
CLASS
  1
IDBUFFER
  2
AcDbIdBuffer
  3
ObjectDBX Classes
 90
        0
 91
        3
280
     0
281
     0
  0
CLASS
  1
SPATIAL_FILTER
  2
AcDbSpatialFilter
  3
ObjectDBX Classes
 90
        0
 91
        3
280
     0
281
     0
  0
CLASS
  1
XRECORD
  2
AcDbXrecord
  3
ObjectDBX Classes
 90
        0
 91
        1
280
     0
281
     0
  0
CLASS
  1
SORTENTSTABLE
  2
AcDbSortentsTable
  3
ObjectDBX Classes
 90
        0
 91
        3
280
     0
281
     0
  0
CLASS
  1
LAYER_INDEX
  2
AcDbLayerIndex
  3
ObjectDBX Classes
 90
        0
 91
        3
280
     0
281
     0
  0
CLASS
  1
SPATIAL_INDEX
  2
AcDbSpatialIndex
  3
AutoCAD 2000
 90
        0
 91
        3
280
     0
281
     0
  0
CLASS
  1
OBJECT_PTR
  2
CAseDLPNTableRecord
  3
ASE-LPNTableRecord
 90
        1
 91
        3
280
     0
281
     0
  0
CLASS
  1
LAYOUT
  2
AcDbLayout
  3
ObjectDBX Classes
 90
        0
 91
        1
280
     0
281
     0
  0
CLASS
  1
PLOTSETTINGS
  2
AcDbPlotSettings
  3
ObjectDBX Classes
 90
        0
 91
        3
280
     0
281
     0
  0
CLASS
  1
ACDBDICTIONARYWDFLT
  2
AcDbDictionaryWithDefault
  3
ObjectDBX Classes
 90
        0
 91
        3
280
     0
281
     0
  0
CLASS
  1
ACDBPLACEHOLDER
  2
AcDbPlaceHolder
  3
ObjectDBX Classes
 90
        0
 91
        1
280
     0
281
     0
  0
CLASS
  1
VBA_PROJECT
  2
AcDbVbaProject
  3
ObjectDBX Classes
 90
        0
 91
        1
280
     0
281
     0
  0
CLASS
  1
WIPEOUT
  2
AcDbWipeout
  3
WipeOut|AutoCAD Express Tool|expresstools@autodesk.com
 90
      127
 91
        3
280
     0
281
     1
  0
CLASS
  1
WIPEOUTVARIABLES
  2
AcDbWipeoutVariables
  3
WipeOut|AutoCAD Express Tool|expresstools@autodesk.com
 90
        0
 91
        3
280
     0
281
     0
  0
CLASS
  1
RTEXT
  2
RText
  3
RText|AutoCAD Express Tool|expresstools@autodesk.com
 90
        0
 91
        3
280
     0
281
     1
  0
CLASS
  1
ARCALIGNEDTEXT
  2
AcDbArcAlignedText
  3
ATEXT|AutoCAD Express Tool|expresstools@autodesk.com
 90
        0
 91
        3
280
     0
281
     1
  0
CLASS
  1
SCALE
  2
AcDbScale
  3
ObjectDBX Classes
 90
     1153
 91
        3
280
     0
281
     0
  0
CLASS
  1
VISUALSTYLE
  2
AcDbVisualStyle
  3
ObjectDBX Classes
 90
     4095
 91
        3
280
     0
281
     0
  0
CLASS
  1
MATERIAL
  2
AcDbMaterial
  3
ObjectDBX Classes
 90
     1153
 91
        3
280
     0
281
     0
  0
CLASS
  1
TABLESTYLE
  2
AcDbTableStyle
  3
ObjectDBX Classes
 90
     4095
 91
        3
280
     0
281
     0
  0
CLASS
  1
MLEADERSTYLE
  2
AcDbMLeaderStyle
  3
ACDB_MLEADERSTYLE_CLASS
 90
     4095
 91
        3
280
     0
281
     0
  0
CLASS
  1
SUN
  2
AcDbSun
  3
SCENEOE
 90
     1153
 91
        3
280
     0
281
     0
  0
CLASS
  1
CELLSTYLEMAP
  2
AcDbCellStyleMap
  3
ObjectDBX Classes
 90
     1152
 91
        3
280
     0
281
     0
  0
ENDSEC
  0
SECTION
  2
TABLES
  0
TABLE
  2
VPORT
  5
7
330
0
100
AcDbSymbolTable
 70
     1
  0
VPORT
  5
15
330
7
100
AcDbSymbolTableRecord
100
AcDbViewportTableRecord
  2
*ACTIVE
 70
     0
 10
0.0
 20
0.0
 11
1.0
 21
1.0
 12
108.3112073748852
 22
161.6980934946959
 13
0.0
 23
0.0
 14
1.0
 24
1.0
 15
0.0
 25
0.0
 16
0.0
 26
0.0
 36
1.0
 17
0.0
 27
0.0
 37
0.0
 40
294.4310753312954
 41
0.9063829787234042
 42
50.0
 43
0.0
 44
0.0
 50
0.0
 51
0.0
 71
    16
 72
   100
 73
     1
 74
     1
 75
     0
 76
     0
 77
     0
 78
     0
281
     0
 65
     0
110
0.0
120
0.0
130
0.0
111
1.0
121
0.0
131
0.0
112
0.0
122
1.0
132
0.0
 79
     0
146
0.0
348
1D7
 60
     3
 61
     5
292
     1
282
     1
141
0.0
142
0.0
 63
   256
361
1FB
  0
ENDTAB
  0
TABLE
  2
LTYPE
  5
4
330
0
100
AcDbSymbolTable
 70
    11
  0
LTYPE
  5
11
330
4
100
AcDbSymbolTableRecord
100
AcDbLinetypeTableRecord
  2
ByBlock
 70
     0
  3

 72
    65
 73
     0
 40
0.0
  0
LTYPE
  5
12
330
4
100
AcDbSymbolTableRecord
100
AcDbLinetypeTableRecord
  2
ByLayer
 70
     0
  3

 72
    65
 73
     0
 40
0.0
  0
LTYPE
  5
13
330
4
100
AcDbSymbolTableRecord
100
AcDbLinetypeTableRecord
  2
Continuous
 70
     0
  3
Solid line
 72
    65
 73
     0
 40
0.0
  0
LTYPE
  5
26
330
4
100
AcDbSymbolTableRecord
100
AcDbLinetypeTableRecord
  2
STYLE_01
 70
     0
  3

 72
    65
 73
     2
 40
0.1875
 49
0.125
 74
     0
 49
-0.0625
 74
     0
  0
LTYPE
  5
27
330
4
100
AcDbSymbolTableRecord
100
AcDbLinetypeTableRecord
  2
STYLE_02
 70
     0
  3

 72
    65
 73
     6
 40
1.25
 49
0.6249999999999999
 74
     0
 49
-0.1250000000000001
 74
     0
 49
0.125
 74
     0
 49
-0.125
 74
     0
 49
0.125
 74
     0
 49
-0.125
 74
     0
  0
LTYPE
  5
28
330
4
100
AcDbSymbolTableRecord
100
AcDbLinetypeTableRecord
  2
STYLE_03
 70
     0
  3

 72
    65
 73
     4
 40
0.9999999999999999
 49
0.6249999999999999
 74
     0
 49
-0.1250000000000001
 74
     0
 49
0.125
 74
     0
 49
-0.125
 74
     0
  0
LTYPE
  5
29
330
4
100
AcDbSymbolTableRecord
100
AcDbLinetypeTableRecord
  2
STYLE_04
 70
     0
  3

 72
    65
 73
     4
 40
2.0
 49
1.25
 74
     0
 49
-0.2500000000000001
 74
     0
 49
0.2499999999999999
 74
     0
 49
-0.2499999999999999
 74
     0
  0
LTYPE
  5
2A
330
4
100
AcDbSymbolTableRecord
100
AcDbLinetypeTableRecord
  2
STYLE_05
 70
     0
  3

 72
    65
 73
     2
 40
0.0625
 49
0.0005
 74
     0
 49
-0.062
 74
     0
  0
LTYPE
  5
2B
330
4
100
AcDbSymbolTableRecord
100
AcDbLinetypeTableRecord
  2
STYLE_06
 70
     0
  3

 72
    65
 73
     4
 40
1.04164
 49
0.625
 74
     0
 49
-0.20828
 74
     0
 49
0.06943
 74
     0
 49
-0.13893
 74
     0
  0
LTYPE
  5
2C
330
4
100
AcDbSymbolTableRecord
100
AcDbLinetypeTableRecord
  2
STYLE_07
 70
     0
  3

 72
    65
 73
     6
 40
1.875
 49
0.625
 74
     0
 49
-0.20828
 74
     0
 49
0.6250000000000001
 74
     0
 49
-0.2083599999999999
 74
     0
 49
0.06943
 74
     0
 49
-0.1389299999999999
 74
     0
  0
LTYPE
  5
2D
330
4
100
AcDbSymbolTableRecord
100
AcDbLinetypeTableRecord
  2
STYLE_08
 70
     0
  3

 72
    65
 73
     6
 40
1.25
 49
0.625
 74
     0
 49
-0.20828
 74
     0
 49
0.06943
 74
     0
 49
-0.13893
 74
     0
 49
0.0694299999999999
 74
     0
 49
-0.13893
 74
     0
  0
LTYPE
  5
2E
330
4
100
AcDbSymbolTableRecord
100
AcDbLinetypeTableRecord
  2
STYLE_09
 70
     0
  3

 72
    65
 73
     4
 40
5.0
 49
3.75
 74
     0
 49
-0.2777849999999998
 74
     0
 49
0.6944300000000003
 74
     0
 49
-0.2777849999999998
 74
     0
  0
LTYPE
  5
2F
330
4
100
AcDbSymbolTableRecord
100
AcDbLinetypeTableRecord
  2
STYLE_10
 70
     0
  3

 72
    65
 73
     6
 40
5.9375
 49
3.75
 74
     0
 49
-0.2777849999999998
 74
     0
 49
0.6944300000000003
 74
     0
 49
-0.2777849999999998
 74
     0
 49
0.625
 74
     0
 49
-0.3125
 74
     0
  0
ENDTAB
  0
TABLE
  2
LAYER
  5
2
330
0
100
AcDbSymbolTable
 70
     6
  0
LAYER
  5
14
330
2
100
AcDbSymbolTableRecord
100
AcDbLayerTableRecord
  2
0
 70
     0
 62
     7
  6
Continuous
370
    15
390
1D
347
1EE
348
0
  0
LAYER
  5
30
330
2
100
AcDbSymbolTableRecord
100
AcDbLayerTableRecord
  2
Defpoints
 70
     0
 62
     7
  6
Continuous
290
     0
370
    -3
390
1D
347
1EE
348
0
  0
LAYER
  5
31
330
2
100
AcDbSymbolTableRecord
100
AcDbLayerTableRecord
  2
一般
 70
     0
 62
     7
  6
Continuous
370
     5
390
1D
347
1EE
348
0
  0
LAYER
  5
32
330
2
100
AcDbSymbolTableRecord
100
AcDbLayerTableRecord
  2
寸法
 70
     0
 62
     7
  6
Continuous
370
     5
390
1D
347
1EE
348
0
  0
LAYER
  5
33
330
2
100
AcDbSymbolTableRecord
100
AcDbLayerTableRecord
  2
レイヤー_1
 70
     0
 62
    19
  6
Continuous
370
    15
390
1D
347
1EE
348
0
  0
LAYER
  5
34
330
2
100
AcDbSymbolTableRecord
100
AcDbLayerTableRecord
  2
FORMAT
 70
     0
 62
     7
  6
Continuous
370
    15
390
1D
347
1EE
348
0
  0
ENDTAB
  0
TABLE
  2
STYLE
  5
3
330
0
100
AcDbSymbolTable
 70
     2
  0
STYLE
  5
17
330
3
100
AcDbSymbolTableRecord
100
AcDbTextStyleTableRecord
  2
Standard
 70
     0
 40
0.0
 41
1.0
 50
0.0
 71
     0
 42
0.0
  3
txt
  4
BIGFONT.SHX
  0
STYLE
  5
25
330
3
100
AcDbSymbolTableRecord
100
AcDbTextStyleTableRecord
  2
Arial
 70
     0
 40
0.0
 41
1.0
 50
0.0
 71
     0
 42
0.0
  3
Arial
  4

1001
ACAD
1000
Arial
1071
        0
  0
ENDTAB
  0
TABLE
  2
VIEW
  5
5
330
0
100
AcDbSymbolTable
 70
     0
  0
ENDTAB
  0
TABLE
  2
UCS
  5
6
330
0
100
AcDbSymbolTable
 70
     0
  0
ENDTAB
  0
TABLE
  2
APPID
  5
8
330
0
100
AcDbSymbolTable
 70
     2
  0
APPID
  5
16
330
8
100
AcDbSymbolTableRecord
100
AcDbRegAppTableRecord
  2
ACAD
 70
     0
  0
APPID
  5
1FF
330
8
100
AcDbSymbolTableRecord
100
AcDbRegAppTableRecord
  2
PLOTTRANSPARENCY
 70
     0
  0
ENDTAB
  0
TABLE
  2
DIMSTYLE
  5
9
330
0
100
AcDbSymbolTable
 70
     1
100
AcDbDimStyleTable
  0
DIMSTYLE
105
18
330
9
100
AcDbSymbolTableRecord
100
AcDbDimStyleTableRecord
  2
Standard
 70
     0
178
     0
340
17
  0
ENDTAB
  0
TABLE
  2
BLOCK_RECORD
  5
1
330
0
100
AcDbSymbolTable
 70
     1
  0
BLOCK_RECORD
  5
A
330
1
100
AcDbSymbolTableRecord
100
AcDbBlockTableRecord
  2
*MODEL_SPACE
340
20
 70
     0
280
     1
281
     0
  0
BLOCK_RECORD
  5
B
330
1
100
AcDbSymbolTableRecord
100
AcDbBlockTableRecord
  2
*PAPER_SPACE
340
21
 70
     0
280
     1
281
     0
  0
BLOCK_RECORD
  5
24
330
1
100
AcDbSymbolTableRecord
100
AcDbBlockTableRecord
  2
*U0
340
0
102
{BLKREFS
331
1AE
102
}
 70
     0
280
     1
281
     0
  0
ENDTAB
  0
ENDSEC
  0
SECTION
  2
BLOCKS
  0
BLOCK
  5
D
330
A
100
AcDbEntity
  8
0
100
AcDbBlockBegin
  2
*MODEL_SPACE
 70
     0
 10
0.0
 20
0.0
 30
0.0
  3
*MODEL_SPACE
  1

  0
ENDBLK
  5
E
330
A
100
AcDbEntity
  8
0
100
AcDbBlockEnd
  0
BLOCK
  5
F
330
B
100
AcDbEntity
 67
     1
  8
0
100
AcDbBlockBegin
  2
*PAPER_SPACE
 70
     0
 10
0.0
 20
0.0
 30
0.0
  3
*PAPER_SPACE
  1

  0
ENDBLK
  5
10
330
B
100
AcDbEntity
 67
     1
  8
0
100
AcDbBlockEnd
  0
BLOCK
  5
35
330
24
100
AcDbEntity
  8
一般
100
AcDbBlockBegin
  2
*U0
 70
     1
 10
0.0
 20
0.0
 30
0.0
  3
*U0
  1

  0
LINE
  5
36
330
24
100
AcDbEntity
  8
0
  6
STYLE_04
 62
     7
100
AcDbLine
 10
10.31864321516276
 20
131.5029230436629
 30
0.0
 11
11.51824282356277
 21
-105.4538273728372
 31
0.0
  0
LINE
  5
37
330
24
100
AcDbEntity
  8
0
  6
STYLE_04
 62
     7
100
AcDbLine
 10
-7.696370170937247
 20
-98.56302254393717
 30
0.0
 11
-8.895969779337225
 21
138.3937278726629
 31
0.0
  0
LINE
  5
38
330
24
100
AcDbEntity
  8
0
  6
STYLE_04
 62
     7
100
AcDbLine
 10
-8.331493215037245
 20
138.5654476239628
 30
0.0
 11
9.750371431062785
 21
132.0808725635629
 31
0.0
  0
SPLINE
  5
39
330
24
100
AcDbEntity
  8
0
  6
Continuous
 62
     7
370
    25
100
AcDbSpline
210
0.0
220
0.0
230
1.0
 70
     8
 71
     2
 72
    21
 73
    18
 74
     0
 42
0.000000001
 43
0.000001
 40
0.0
 40
0.0
 40
0.0
 40
1.0
 40
1.0
 40
2.0
 40
3.0
 40
4.0
 40
5.0
 40
6.0
 40
7.0
 40
8.0
 40
9.0
 40
10.0
 40
11.0
 40
12.0
 40
13.0
 40
13.0
 40
14.0
 40
14.0
 40
14.0
 10
-2.094639890454818
 20
128.5904150741119
 30
0.0
 10
-2.09781269406675
 20
128.5888190606263
 30
0.0
 10
-2.100985497678682
 20
128.5872230471407
 30
0.0
 10
-2.196812760459341
 20
128.5401743927702
 30
0.0
 10
-2.427912019158942
 20
128.4091267334209
 30
0.0
 10
-2.609651152513056
 20
128.1997393530817
 30
0.0
 10
-2.809368950213116
 20
127.8606382605156
 30
0.0
 10
-2.913236871758091
 20
127.2675255683217
 30
0.0
 10
-2.84932554766208
 20
126.745014414518
 30
0.0
 10
-2.747008374040082
 20
126.4055964371253
 30
0.0
 10
-2.570424478874646
 20
126.0099972193133
 30
0.0
 10
-2.190561186451863
 20
125.5456446194104
 30
0.0
 10
-1.785379752568804
 20
125.3490581340774
 30
0.0
 10
-1.588060250028963
 20
125.2951421909273
 30
0.0
 10
-1.394864269807545
 20
125.2655928023791
 30
0.0
 10
-1.263806413927757
 20
125.3103825493688
 30
0.0
 10
-1.263234732197663
 20
125.3105669026058
 30
0.0
 10
-1.26266305046757
 20
125.3107512558428
 30
0.0
  0
LINE
  5
3A
330
24
100
AcDbEntity
  8
0
  6
Continuous
 62
     7
370
    25
100
AcDbLine
 10
-1.674176464137236
 20
128.7463399646629
 30
0.0
 11
-2.09307346453723
 21
128.5915356806628
 31
0.0
  0
LINE
  5
3B
330
24
100
AcDbEntity
  8
0
  6
Continuous
 62
     7
370
    25
100
AcDbLine
 10
-1.271814356637226
 20
125.2978204447628
 30
0.0
 11
-0.8292755466372235
 21
125.3578076513628
 31
0.0
  0
LINE
  5
3C
330
24
100
AcDbEntity
  8
0
  6
Continuous
 62
     7
370
    25
100
AcDbLine
 10
-0.0993061473372343
 20
126.3088027910629
 30
0.0
 11
0.990720460262775
 21
126.5805913991629
 31
0.0
  0
LINE
  5
3D
330
24
100
AcDbEntity
  8
0
  6
Continuous
 62
     7
370
    25
100
AcDbLine
 10
0.5068524476627765
 20
128.5211768124628
 30
0.0
 11
-0.5831741599372329
 21
128.2493882043628
 31
0.0
  0
LINE
  5
3E
330
24
100
AcDbEntity
  8
0
  6
Continuous
 62
     7
370
    25
100
AcDbLine
 10
28.79266582726278
 20
135.7249789477628
 30
0.0
 11
28.47544013176276
 21
135.8387434224629
 31
0.0
  0
LINE
  5
3F
330
24
100
AcDbEntity
  8
0
  6
Continuous
 62
     7
370
    25
100
AcDbLine
 10
8.89213128346277
 20
143.2539175321629
 30
0.0
 11
-7.919480277237245
 21
139.0620891184628
 31
0.0
  0
LINE
  5
40
330
24
100
AcDbEntity
  8
0
  6
Continuous
 62
     7
370
    25
100
AcDbLine
 10
-8.817100946437211
 20
138.4451264249628
 30
0.0
 11
-7.617501338037233
 21
-98.51162399153716
 31
0.0
  0
LINE
  5
41
330
24
100
AcDbEntity
  8
0
  6
Continuous
 62
     7
370
    25
100
AcDbLine
 10
-83.97839479063724
 20
-106.4202260072372
 30
0.0
 11
-83.9735625666372
 21
-107.3747345688372
 31
0.0
  0
LINE
  5
42
330
24
100
AcDbEntity
  8
0
  6
Continuous
 62
     7
370
    25
100
AcDbLine
 10
67.7084605602628
 20
-103.5620537931372
 30
0.0
 11
67.70362833626278
 21
-102.6075452315372
 31
0.0
  0
POLYLINE
  5
43
330
24
100
AcDbEntity
  8
0
  6
Continuous
 62
     7
370
    25
100
AcDb2dPolyline
 66
     1
 10
0.0
 20
0.0
 30
0.0
 75
     5
  0
VERTEX
  5
44
330
43
100
AcDbEntity
  8
0
  6
Continuous
 62
     7
370
    25
100
AcDbVertex
100
AcDb2dVertex
 10
-1.33628103843721
 20
127.0430349585628
 30
0.0
  0
VERTEX
  5
45
330
43
100
AcDbEntity
  8
0
  6
Continuous
 62
     7
370
    25
100
AcDbVertex
100
AcDb2dVertex
 10
-1.507663704537226
 20
127.4850157883628
 30
0.0
  0
VERTEX
  5
46
330
43
100
AcDbEntity
  8
0
  6
Continuous
 62
     7
370
    25
100
AcDbVertex
100
AcDb2dVertex
 10
-1.76247370283723
 20
127.8305678687628
 30
0.0
  0
VERTEX
  5
47
330
43
100
AcDbEntity
  8
0
  6
Continuous
 62
     7
370
    25
100
AcDbVertex
100
AcDb2dVertex
 10
-2.061918520837242
 20
128.0270840279629
 30
0.0
  0
VERTEX
  5
48
330
43
100
AcDbEntity
  8
0
  6
Continuous
 62
     7
370
    25
100
AcDbVertex
100
AcDb2dVertex
 10
-2.360410399637221
 20
128.0446464620629
 30
0.0
  0
VERTEX
  5
49
330
43
100
AcDbEntity
  8
0
  6
Continuous
 62
     7
370
    25
100
AcDbVertex
100
AcDb2dVertex
 10
-2.612506656437223
 20
127.8805814498628
 30
0.0
  0
VERTEX
  5
4A
330
43
100
AcDbEntity
  8
0
  6
Continuous
 62
     7
370
    25
100
AcDbVertex
100
AcDb2dVertex
 10
-2.779827921337233
 20
127.5598664019628
 30
0.0
  0
VERTEX
  5
4B
330
43
100
AcDbEntity
  8
0
  6
Continuous
 62
     7
370
    25
100
AcDbVertex
100
AcDb2dVertex
 10
-2.83690104863722
 20
127.1313272773628
 30
0.0
  0
VERTEX
  5
4C
330
43
100
AcDbEntity
  8
0
  6
Continuous
 62
     7
370
    25
100
AcDbVertex
100
AcDb2dVertex
 10
-2.775037172037219
 20
126.6602052728629
 30
0.0
  0
VERTEX
  5
4D
330
43
100
AcDbEntity
  8
0
  6
Continuous
 62
     7
370
    25
100
AcDbVertex
100
AcDb2dVertex
 10
-2.603654505937232
 20
126.2182244430629
 30
0.0
  0
VERTEX
  5
4E
330
43
100
AcDbEntity
  8
0
  6
Continuous
 62
     7
370
    25
100
AcDbVertex
100
AcDb2dVertex
 10
-2.348844507637228
 20
125.8726723626628
 30
0.0
  0
VERTEX
  5
4F
330
43
100
AcDbEntity
  8
0
  6
Continuous
 62
     7
370
    25
100
AcDbVertex
100
AcDb2dVertex
 10
-2.049399689537228
 20
125.6761562034628
 30
0.0
  0
VERTEX
  5
50
330
43
100
AcDbEntity
  8
0
  6
Continuous
 62
     7
370
    25
100
AcDbVertex
100
AcDb2dVertex
 10
-1.750907810737221
 20
125.6585937693628
 30
0.0
  0
VERTEX
  5
51
330
43
100
AcDbEntity
  8
0
  6
Continuous
 62
     7
370
    25
100
AcDbVertex
100
AcDb2dVertex
 10
-1.498811554037207
 20
125.8226587816628
 30
0.0
  0
VERTEX
  5
52
330
43
100
AcDbEntity
  8
0
  6
Continuous
 62
     7
370
    25
100
AcDbVertex
100
AcDb2dVertex
 10
-1.331490289037209
 20
126.1433738294628
 30
0.0
  0
VERTEX
  5
53
330
43
100
AcDbEntity
  8
0
  6
Continuous
 62
     7
370
    25
100
AcDbVertex
100
AcDb2dVertex
 10
-1.274417161737222
 20
126.5719129541628
 30
0.0
  0
VERTEX
  5
54
330
43
100
AcDbEntity
  8
0
  6
Continuous
 62
     7
370
    25
100
AcDbVertex
100
AcDb2dVertex
 10
-1.33628103843721
 20
127.0430349585628
 30
0.0
  0
SEQEND
  5
55
330
43
100
AcDbEntity
  8
0
  6
Continuous
 62
     7
370
    25
  0
ARC
  5
56
330
24
100
AcDbEntity
  8
0
  6
Continuous
 62
     7
370
    25
100
AcDbCircle
 10
3.347924992562763
 20
128.2315537608628
 30
0.0
 40
5.605269289610515
100
AcDbArc
 50
196.0962372009001
 51
203.5503736932003
  0
ARC
  5
57
330
24
100
AcDbEntity
  8
0
  6
Continuous
 62
     7
370
    25
100
AcDbCircle
 10
49.11385917706276
 20
-66.24618637553716
 30
0.0
 40
199.5896157666512
100
AcDbArc
 50
104.7037879272
 51
104.8496331127
  0
ARC
  5
58
330
24
100
AcDbEntity
  8
0
  6
Continuous
 62
     7
370
    25
100
AcDbCircle
 10
3.769125655462755
 20
128.3454850539629
 30
0.0
 40
5.53363089236059
100
AcDbArc
 50
192.5172114497003
 51
196.1416479182
  0
ARC
  5
59
330
24
100
AcDbEntity
  8
0
  6
Continuous
 62
     7
370
    25
100
AcDbCircle
 10
49.02723778716278
 20
-65.90708494543716
 30
0.0
 40
199.5896156995801
100
AcDbArc
 50
104.7037879272
 51
104.8496331127
  0
ARC
  5
5A
330
24
100
AcDbEntity
  8
0
  6
Continuous
 62
     7
370
    25
100
AcDbCircle
 10
3.328898626562772
 20
128.2319807762628
 30
0.0
 40
5.586925430538738
100
AcDbArc
 50
185.0942931025999
 51
192.5647493913004
  0
ARC
  5
5B
330
24
100
AcDbEntity
  8
0
  6
Continuous
 62
     7
370
    25
100
AcDbCircle
 10
30.75920103276276
 20
3.321568381762845
 30
0.0
 40
128.7152040535961
100
AcDbArc
 50
104.8531407716
 51
104.9473262238
  0
ARC
  5
5C
330
24
100
AcDbEntity
  8
0
  6
Continuous
 62
     7
370
    25
100
AcDbCircle
 10
3.124425284262781
 20
128.1775737342629
 30
0.0
 40
5.586925430533318
100
AcDbArc
 50
185.0942931026001
 51
192.5647493913003
  0
ARC
  5
5D
330
24
100
AcDbEntity
  8
0
  6
Continuous
 62
     7
370
    25
100
AcDbCircle
 10
17.24967698116278
 20
53.54408391866285
 30
0.0
 40
75.98374405067456
100
AcDbArc
 50
104.9315746414
 51
105.2094665739
  0
ARC
  5
5E
330
24
100
AcDbEntity
  8
0
  6
Continuous
 62
     7
370
    25
100
AcDbCircle
 10
2.71754846626278
 20
128.0656774094629
 30
0.0
 40
5.533630892326057
100
AcDbArc
 50
192.5172114497001
 51
196.1416479182
  0
ARC
  5
5F
330
24
100
AcDbEntity
  8
0
  6
Continuous
 62
     7
370
    25
100
AcDbCircle
 10
17.33629836156278
 20
53.20498252526285
 30
0.0
 40
75.98374407983314
100
AcDbArc
 50
104.9315746414
 51
105.2094665739
  0
ARC
  5
60
330
24
100
AcDbEntity
  8
0
  6
Continuous
 62
     7
370
    25
100
AcDbCircle
 10
3.143451650162785
 20
128.1771467189628
 30
0.0
 40
5.60526928959723
100
AcDbArc
 50
196.0962372009
 51
203.5503736933003
  0
ARC
  5
61
330
24
100
AcDbEntity
  8
0
  6
Continuous
 62
     7
370
    25
100
AcDbCircle
 10
31.20468233016278
 20
1.577618686562843
 30
0.0
 40
128.7152038642786
100
AcDbArc
 50
104.8531407715
 51
104.9473262239
  0
POLYLINE
  5
62
330
24
100
AcDbEntity
  8
0
  6
Continuous
 62
     7
370
    25
100
AcDb2dPolyline
 66
     1
 10
0.0
 20
0.0
 30
0.0
 75
     5
  0
VERTEX
  5
63
330
62
100
AcDbEntity
  8
0
  6
Continuous
 62
     7
370
    25
100
AcDbVertex
100
AcDb2dVertex
 10
-0.1612159793372321
 20
127.3410999578629
 30
0.0
  0
VERTEX
  5
64
330
62
100
AcDbEntity
  8
0
  6
Continuous
 62
     7
370
    25
100
AcDbVertex
100
AcDb2dVertex
 10
-0.3572401967372123
 20
127.8768905062628
 30
0.0
  0
VERTEX
  5
65
330
62
100
AcDbEntity
  8
0
  6
Continuous
 62
     7
370
    25
100
AcDbVertex
100
AcDb2dVertex
 10
-0.6428114453372196
 20
128.3251405989628
 30
0.0
  0
VERTEX
  5
66
330
62
100
AcDbEntity
  8
0
  6
Continuous
 62
     7
370
    25
100
AcDbVertex
100
AcDb2dVertex
 10
-0.9869836494372244
 20
128.6372753832629
 30
0.0
  0
VERTEX
  5
67
330
62
100
AcDbEntity
  8
0
  6
Continuous
 62
     7
370
    25
100
AcDbVertex
100
AcDb2dVertex
 10
-1.35246041013723
 20
128.7794702118629
 30
0.0
  0
VERTEX
  5
68
330
62
100
AcDbEntity
  8
0
  6
Continuous
 62
     7
370
    25
100
AcDbVertex
100
AcDb2dVertex
 10
-1.674176464137236
 20
128.7463399646629
 30
0.0
  0
SEQEND
  5
69
330
62
100
AcDbEntity
  8
0
  6
Continuous
 62
     7
370
    25
  0
POLYLINE
  5
6A
330
24
100
AcDbEntity
  8
0
  6
Continuous
 62
     7
370
    25
100
AcDb2dPolyline
 66
     1
 10
0.0
 20
0.0
 30
0.0
 75
     5
  0
VERTEX
  5
6B
330
6A
100
AcDbEntity
  8
0
  6
Continuous
 62
     7
370
    25
100
AcDbVertex
100
AcDb2dVertex
 10
-0.8292755466372235
 20
125.3578076513628
 30
0.0
  0
VERTEX
  5
6C
330
6A
100
AcDbEntity
  8
0
  6
Continuous
 62
     7
370
    25
100
AcDbVertex
100
AcDb2dVertex
 10
-0.5127525913372217
 20
125.4922206759629
 30
0.0
  0
VERTEX
  5
6D
330
6A
100
AcDbEntity
  8
0
  6
Continuous
 62
     7
370
    25
100
AcDbVertex
100
AcDb2dVertex
 10
-0.2618185528372301
 20
125.7984324266628
 30
0.0
  0
VERTEX
  5
6E
330
6A
100
AcDbEntity
  8
0
  6
Continuous
 62
     7
370
    25
100
AcDbVertex
100
AcDb2dVertex
 10
-0.1107719613372247
 20
126.2423369051628
 30
0.0
  0
VERTEX
  5
6F
330
6A
100
AcDbEntity
  8
0
  6
Continuous
 62
     7
370
    25
100
AcDbVertex
100
AcDb2dVertex
 10
-0.0759810588372041
 20
126.7758301734628
 30
0.0
  0
VERTEX
  5
70
330
6A
100
AcDbEntity
  8
0
  6
Continuous
 62
     7
370
    25
100
AcDbVertex
100
AcDb2dVertex
 10
-0.1612159793372321
 20
127.3410999578629
 30
0.0
  0
SEQEND
  5
71
330
6A
100
AcDbEntity
  8
0
  6
Continuous
 62
     7
370
    25
  0
LINE
  5
72
330
24
100
AcDbEntity
  8
0
  6
Continuous
 62
     7
370
    25
100
AcDbLine
 10
-1.631480199137219
 20
127.1394469430629
 30
0.0
 11
-2.124224339637227
 21
127.0165854980628
 31
0.0
  0
LINE
  5
73
330
24
100
AcDbEntity
  8
0
  6
Continuous
 62
     7
370
    25
100
AcDbLine
 10
-2.177803183837216
 20
126.9927113494629
 30
0.0
 11
-2.092884781437238
 21
126.6602766944628
 31
0.0
  0
LINE
  5
74
330
24
100
AcDbEntity
  8
0
  6
Continuous
 62
     7
370
    25
100
AcDbLine
 10
-1.754251260437218
 20
127.1054116507628
 30
0.0
 11
-2.177803183837216
 21
126.9927113494629
 31
0.0
  0
LINE
  5
75
330
24
100
AcDbEntity
  8
0
  6
Continuous
 62
     7
370
    25
100
AcDbLine
 10
-2.235659366037215
 20
127.7325403024628
 30
0.0
 11
-2.440431314337207
 21
127.6814822067628
 31
0.0
  0
LINE
  5
76
330
24
100
AcDbEntity
  8
0
  6
Continuous
 62
     7
370
    25
100
AcDbLine
 10
-2.036679889437227
 20
126.6742908930628
 30
0.0
 11
-2.242076309137236
 21
126.6230770908629
 31
0.0
  0
LINE
  5
77
330
24
100
AcDbEntity
  8
0
  6
Continuous
 62
     7
370
    25
100
AcDbLine
 10
-1.754251260437218
 20
127.1054116507628
 30
0.0
 11
-2.328697681937218
 21
126.9621784560629
 31
0.0
  0
LINE
  5
78
330
24
100
AcDbEntity
  8
0
  6
Continuous
 62
     7
370
    25
100
AcDbLine
 10
-2.177803183837216
 20
126.9927113494629
 30
0.0
 11
-2.684553251137221
 21
126.8663576490629
 31
0.0
  0
ARC
  5
79
330
24
100
AcDbEntity
  8
0
  6
Continuous
 62
     7
370
    25
100
AcDbCircle
 10
10.64734090296276
 20
133.6041704477628
 30
0.0
 40
2.093235703101647
100
AcDbArc
 50
253.9751622649003
 51
283.1918729142001
  0
LINE
  5
7A
330
24
100
AcDbEntity
  8
0
  6
Continuous
 62
     7
370
    25
100
AcDbLine
 10
11.12504402326278
 20
131.5661725484629
 30
0.0
 11
12.32464363176278
 21
-105.3905778680372
 31
0.0
  0
ARC
  5
7B
330
24
100
AcDbEntity
  8
0
  6
Continuous
 62
     7
370
    25
100
AcDbCircle
 10
11.84694051136277
 20
-103.3525799687372
 30
0.0
 40
2.093235703102006
100
AcDbArc
 50
253.9751622648999
 51
283.1918729142002
  0
LINE
  5
7C
330
24
100
AcDbEntity
  8
0
  6
Continuous
 62
     7
370
    25
100
AcDbLine
 10
11.26909434496276
 20
-105.3644769633372
 30
0.0
 11
10.06949473646277
 21
131.5922734532629
 31
0.0
  0
LINE
  5
7D
330
24
100
AcDbEntity
  8
0
  6
Continuous
 62
     7
370
    25
100
AcDbLine
 10
10.45596856546278
 20
131.6886373247629
 30
0.0
 11
10.06949473646277
 21
131.5922734532629
 31
0.0
  0
ARC
  5
7E
330
24
100
AcDbEntity
  8
0
  6
Continuous
 62
     7
370
    25
100
AcDbCircle
 10
10.64858395426277
 20
132.3592696562628
 30
0.0
 40
0.6977452343678507
100
AcDbArc
 50
253.9751622648992
 51
283.1918729142005
  0
LINE
  5
7F
330
24
100
AcDbEntity
  8
0
  6
Continuous
 62
     7
370
    25
100
AcDbLine
 10
10.80781832776277
 20
131.6799370231628
 30
0.0
 11
11.12504402326278
 21
131.5661725484629
 31
0.0
  0
LINE
  5
80
330
24
100
AcDbEntity
  8
0
  6
Continuous
 62
     7
370
    25
100
AcDbLine
 10
31.06862433736277
 20
-100.7169300965372
 30
0.0
 11
28.36330753456276
 21
-101.3914771976372
 31
0.0
  0
LINE
  5
81
330
24
100
AcDbEntity
  8
0
  6
Continuous
 62
     7
370
    25
100
AcDbLine
 10
28.36379510326277
 20
-101.4877865913372
 30
0.0
 11
28.36330753456276
 21
-101.3914771976372
 31
0.0
  0
LINE
  5
82
330
24
100
AcDbEntity
  8
0
  6
Continuous
 62
     7
370
    25
100
AcDbLine
 10
17.54204032296276
 20
-104.0896656017372
 30
0.0
 11
17.54252789176276
 21
-104.1859749955372
 31
0.0
  0
LINE
  5
83
330
24
100
AcDbEntity
  8
0
  6
Continuous
 62
     7
370
    25
100
AcDbLine
 10
17.54204032296276
 20
-104.0896656017372
 30
0.0
 11
12.32464363176278
 21
-105.3905778680372
 31
0.0
  0
LINE
  5
84
330
24
100
AcDbEntity
  8
0
  6
Continuous
 62
     7
370
    25
100
AcDbLine
 10
11.12504402326278
 20
131.5661725484629
 30
0.0
 11
27.93665558406276
 21
135.7580009620629
 31
0.0
  0
ARC
  5
85
330
24
100
AcDbEntity
  8
0
  6
Continuous
 62
     7
370
    25
100
AcDbCircle
 10
28.22452492276279
 20
134.1070464625628
 30
0.0
 40
1.675863811831741
100
AcDbArc
 50
351.299826660199
 51
99.89096214050033
  0
LINE
  5
86
330
24
100
AcDbEntity
  8
0
  6
Continuous
 62
     7
370
    25
100
AcDbLine
 10
29.88110528896278
 20
133.8535489159628
 30
0.0
 11
31.06862433736277
 21
-100.7169300965372
 31
0.0
  0
LINE
  5
87
330
24
100
AcDbEntity
  8
0
  6
Continuous
 62
     7
370
    25
100
AcDbLine
 10
10.80781832776277
 20
131.6799370231628
 30
0.0
 11
27.61942988846279
 21
135.8717654368629
 31
0.0
  0
LINE
  5
88
330
24
100
AcDbEntity
  8
0
  6
Continuous
 62
     7
370
    25
100
AcDbLine
 10
27.93665558406276
 20
135.7580009620629
 30
0.0
 11
27.61942988846279
 21
135.8717654368629
 31
0.0
  0
LINE
  5
89
330
24
100
AcDbEntity
  8
0
  6
Continuous
 62
     7
370
    25
100
AcDbLine
 10
10.06949473646277
 20
131.5922734532629
 30
0.0
 11
9.752269040962755
 21
131.7060379279628
 31
0.0
  0
LINE
  5
8A
330
24
100
AcDbEntity
  8
0
  6
Continuous
 62
     7
370
    25
100
AcDbLine
 10
10.13874286996277
 20
131.8024017995629
 30
0.0
 11
9.752269040962755
 21
131.7060379279628
 31
0.0
  0
LINE
  5
8B
330
24
100
AcDbEntity
  8
0
  6
Continuous
 62
     7
370
    25
100
AcDbLine
 10
10.45596856546278
 20
131.6886373247629
 30
0.0
 11
10.13874286996277
 21
131.8024017995629
 31
0.0
  0
LINE
  5
8C
330
24
100
AcDbEntity
  8
0
  6
Continuous
 62
     7
370
    25
100
AcDbLine
 10
-8.329595605137218
 20
138.1906129883628
 30
0.0
 11
-8.646821300637232
 21
138.3043774631628
 31
0.0
  0
LINE
  5
8D
330
24
100
AcDbEntity
  8
0
  6
Continuous
 62
     7
370
    25
100
AcDbLine
 10
9.752269040962755
 20
131.7060379279628
 30
0.0
 11
-8.329595605137218
 21
138.1906129883628
 31
0.0
  0
LINE
  5
8E
330
24
100
AcDbEntity
  8
0
  6
Continuous
 62
     7
370
    25
100
AcDbLine
 10
6.352096063962772
 20
-103.6011276048372
 30
0.0
 11
11.26909434496276
 21
-105.3644769633372
 31
0.0
  0
LINE
  5
8F
330
24
100
AcDbEntity
  8
0
  6
Continuous
 62
     7
370
    25
100
AcDbLine
 10
6.353071201562795
 20
-103.7937463922372
 30
0.0
 11
6.352096063962772
 21
-103.6011276048372
 31
0.0
  0
LINE
  5
90
330
24
100
AcDbEntity
  8
0
  6
Continuous
 62
     7
370
    25
100
AcDbLine
 10
-2.530223411237206
 20
-100.4157223119372
 30
0.0
 11
-2.529031744937232
 21
-100.6511120004372
 31
0.0
  0
LINE
  5
91
330
24
100
AcDbEntity
  8
0
  6
Continuous
 62
     7
370
    25
100
AcDbLine
 10
-7.447221692237225
 20
-98.65237295343717
 30
0.0
 11
-2.530223411237206
 21
-100.4157223119372
 31
0.0
  0
LINE
  5
92
330
24
100
AcDbEntity
  8
0
  6
Continuous
 62
     7
370
    25
100
AcDbLine
 10
-8.646821300637232
 20
138.3043774631628
 30
0.0
 11
-7.447221692237225
 21
-98.65237295343717
 31
0.0
  0
POLYLINE
  5
93
330
24
100
AcDbEntity
  8
0
  6
Continuous
 62
     7
370
    25
100
AcDb2dPolyline
 66
     1
 10
0.0
 20
0.0
 30
0.0
 75
     5
  0
VERTEX
  5
94
330
93
100
AcDbEntity
  8
0
  6
Continuous
 62
     7
370
    25
100
AcDbVertex
100
AcDb2dVertex
 10
0.1208683754627593
 20
63.94010390296283
 30
0.0
  0
VERTEX
  5
95
330
93
100
AcDbEntity
  8
0
  6
Continuous
 62
     7
370
    25
100
AcDbVertex
100
AcDb2dVertex
 10
0.1807406032627732
 20
63.42982965846285
 30
0.0
  0
VERTEX
  5
96
330
93
100
AcDbEntity
  8
0
  6
Continuous
 62
     7
370
    25
100
AcDbVertex
100
AcDb2dVertex
 10
0.3481776587627898
 20
62.93993699476285
 30
0.0
  0
VERTEX
  5
97
330
93
100
AcDbEntity
  8
0
  6
Continuous
 62
     7
370
    25
100
AcDbVertex
100
AcDb2dVertex
 10
0.6029841618627749
 20
62.52951419716284
 30
0.0
  0
VERTEX
  5
98
330
93
100
AcDbEntity
  8
0
  6
Continuous
 62
     7
370
    25
100
AcDbVertex
100
AcDb2dVertex
 10
0.9144266877627949
 20
62.24806431226283
 30
0.0
  0
VERTEX
  5
99
330
93
100
AcDbEntity
  8
0
  6
Continuous
 62
     7
370
    25
100
AcDbVertex
100
AcDb2dVertex
 10
1.24494067136278
 20
62.12953434996284
 30
0.0
  0
VERTEX
  5
9A
330
93
100
AcDbEntity
  8
0
  6
Continuous
 62
     7
370
    25
100
AcDbVertex
100
AcDb2dVertex
 10
1.554661248462775
 20
62.18822077296282
 30
0.0
  0
VERTEX
  5
9B
330
93
100
AcDbEntity
  8
0
  6
Continuous
 62
     7
370
    25
100
AcDbVertex
100
AcDb2dVertex
 10
1.806231546462765
 20
62.41704513256285
 30
0.0
  0
VERTEX
  5
9C
330
93
100
AcDbEntity
  8
0
  6
Continuous
 62
     7
370
    25
100
AcDbVertex
100
AcDb2dVertex
 10
1.969308474662778
 20
62.78840783396284
 30
0.0
  0
VERTEX
  5
9D
330
93
100
AcDbEntity
  8
0
  6
Continuous
 62
     7
370
    25
100
AcDbVertex
100
AcDb2dVertex
 10
2.02422254866276
 20
63.25751705456283
 30
0.0
  0
SEQEND
  5
9E
330
93
100
AcDbEntity
  8
0
  6
Continuous
 62
     7
370
    25
  0
LINE
  5
9F
330
24
100
AcDbEntity
  8
0
  6
Continuous
 62
     7
370
    25
100
AcDbLine
 10
2.02422254866276
 20
63.25751705456283
 30
0.0
 11
2.009725876662781
 21
66.12104273936284
 31
0.0
  0
POLYLINE
  5
A0
330
24
100
AcDbEntity
  8
0
  6
Continuous
 62
     7
370
    25
100
AcDb2dPolyline
 66
     1
 10
0.0
 20
0.0
 30
0.0
 75
     5
  0
VERTEX
  5
A1
330
A0
100
AcDbEntity
  8
0
  6
Continuous
 62
     7
370
    25
100
AcDbVertex
100
AcDb2dVertex
 10
2.009725876662781
 20
66.12104273936284
 30
0.0
  0
VERTEX
  5
A2
330
A0
100
AcDbEntity
  8
0
  6
Continuous
 62
     7
370
    25
100
AcDbVertex
100
AcDb2dVertex
 10
1.94985364876278
 20
66.63131698386285
 30
0.0
  0
VERTEX
  5
A3
330
A0
100
AcDbEntity
  8
0
  6
Continuous
 62
     7
370
    25
100
AcDbVertex
100
AcDb2dVertex
 10
1.782416593362779
 20
67.12120964756285
 30
0.0
  0
VERTEX
  5
A4
330
A0
100
AcDbEntity
  8
0
  6
Continuous
 62
     7
370
    25
100
AcDbVertex
100
AcDb2dVertex
 10
1.527610090262794
 20
67.53163244516283
 30
0.0
  0
VERTEX
  5
A5
330
A0
100
AcDbEntity
  8
0
  6
Continuous
 62
     7
370
    25
100
AcDbVertex
100
AcDb2dVertex
 10
1.216167564362774
 20
67.81308233006284
 30
0.0
  0
VERTEX
  5
A6
330
A0
100
AcDbEntity
  8
0
  6
Continuous
 62
     7
370
    25
100
AcDbVertex
100
AcDb2dVertex
 10
0.8856535807627886
 20
67.93161229236283
 30
0.0
  0
VERTEX
  5
A7
330
A0
100
AcDbEntity
  8
0
  6
Continuous
 62
     7
370
    25
100
AcDbVertex
100
AcDb2dVertex
 10
0.5759330036627937
 20
67.87292586936285
 30
0.0
  0
VERTEX
  5
A8
330
A0
100
AcDbEntity
  8
0
  6
Continuous
 62
     7
370
    25
100
AcDbVertex
100
AcDb2dVertex
 10
0.3243627055627592
 20
67.64410150976285
 30
0.0
  0
VERTEX
  5
A9
330
A0
100
AcDbEntity
  8
0
  6
Continuous
 62
     7
370
    25
100
AcDbVertex
100
AcDb2dVertex
 10
0.1612857774627621
 20
67.27273880836283
 30
0.0
  0
VERTEX
  5
AA
330
A0
100
AcDbEntity
  8
0
  6
Continuous
 62
     7
370
    25
100
AcDbVertex
100
AcDb2dVertex
 10
0.1063717033627647
 20
66.80362958776284
 30
0.0
  0
SEQEND
  5
AB
330
A0
100
AcDbEntity
  8
0
  6
Continuous
 62
     7
370
    25
  0
LINE
  5
AC
330
24
100
AcDbEntity
  8
0
  6
Continuous
 62
     7
370
    25
100
AcDbLine
 10
0.1063717033627647
 20
66.80362958776284
 30
0.0
 11
0.1208683754627593
 21
63.94010390296283
 31
0.0
  0
ARC
  5
AD
330
24
100
AcDbEntity
  8
0
  6
Continuous
 62
     7
370
    25
100
AcDbCircle
 10
26.69411956686276
 20
135.9824410782629
 30
0.0
 40
0.8948336050701378
100
AcDbArc
 50
356.6959247894018
 51
60.11595047090015
  0
LINE
  5
AE
330
24
100
AcDbEntity
  8
0
  6
Continuous
 62
     7
370
    25
100
AcDbLine
 10
27.58746570776277
 20
135.9308673123629
 30
0.0
 11
10.77585414696277
 21
131.7390388987628
 31
0.0
  0
ARC
  5
AF
330
24
100
AcDbEntity
  8
0
  6
Continuous
 62
     7
370
    25
100
AcDbCircle
 10
9.882508006062789
 20
131.7906126646628
 30
0.0
 40
0.8948336050697405
100
AcDbArc
 50
356.6959247894003
 51
60.11595047099956
  0
LINE
  5
B0
330
24
100
AcDbEntity
  8
0
  6
Continuous
 62
     7
370
    25
100
AcDbLine
 10
27.13996717716277
 20
136.7582935701628
 30
0.0
 11
10.32835561646278
 21
132.5664651565629
 31
0.0
  0
LINE
  5
B1
330
24
100
AcDbEntity
  8
0
  6
Continuous
 62
     7
370
    25
100
AcDbLine
 10
10.33077172846277
 20
132.0892108757628
 30
0.0
 11
10.32835561646278
 21
132.5664651565629
 31
0.0
  0
LINE
  5
B2
330
24
100
AcDbEntity
  8
0
  6
Continuous
 62
     7
370
    25
100
AcDbLine
 10
10.45862845146275
 20
131.8528033734628
 30
0.0
 11
10.77585414696277
 21
131.7390388987628
 31
0.0
  0
ARC
  5
B3
330
24
100
AcDbEntity
  8
0
  6
Continuous
 62
     7
370
    25
100
AcDbCircle
 10
10.20338669686278
 20
131.8675387351628
 30
0.0
 40
0.2556667443055676
100
AcDbArc
 50
356.6959247893975
 51
60.11595047100116
  0
ARC
  5
B4
330
24
100
AcDbEntity
  8
0
  6
Continuous
 62
     7
370
    25
100
AcDbCircle
 10
-7.450556854437242
 20
138.2251341593628
 30
0.0
 40
0.8797163386451873
100
AcDbArc
 50
110.1436384848982
 51
182.2489355819002
  0
LINE
  5
B5
330
24
100
AcDbEntity
  8
0
  6
Continuous
 62
     7
370
    25
100
AcDbLine
 10
-7.753509029637218
 20
139.0510402169629
 30
0.0
 11
10.32835561646278
 21
132.5664651565629
 31
0.0
  0
ARC
  5
B6
330
24
100
AcDbEntity
  8
0
  6
Continuous
 62
     7
370
    25
100
AcDbCircle
 10
10.63130779166279
 20
131.7405590988628
 30
0.0
 40
0.8797163386450715
100
AcDbArc
 50
110.1436384848024
 51
182.2489355819004
  0
ARC
  5
B7
330
24
100
AcDbEntity
  8
0
  6
Continuous
 62
     7
370
    25
100
AcDbCircle
 10
10.43175578686278
 20
131.8139088565629
 30
0.0
 40
0.2932387795485156
100
AcDbArc
 50
110.1436384848975
 51
182.2489355819029
  0
LINE
  5
B8
330
24
100
AcDbEntity
  8
0
  6
Continuous
 62
     7
370
    25
100
AcDbLine
 10
10.77618746256276
 20
131.6731991224628
 30
0.0
 11
10.77585414696277
 21
131.7390388987628
 31
0.0
  0
LINE
  5
B9
330
24
100
AcDbEntity
  8
0
  6
Continuous
 62
     7
370
    25
100
AcDbLine
 10
27.58746570776277
 20
135.9308673123629
 30
0.0
 11
27.58780483266277
 21
135.8638800055629
 31
0.0
  0
LINE
  5
BA
330
24
100
AcDbEntity
  8
0
  6
Continuous
 62
     7
370
    25
100
AcDbLine
 10
10.45946575476277
 20
131.6874109689629
 30
0.0
 11
10.45862845146275
 21
131.8528033734628
 31
0.0
  0
LINE
  5
BB
330
24
100
AcDbEntity
  8
0
  6
Continuous
 62
     7
370
    25
100
AcDbLine
 10
9.058102531062769
 20
143.2428686305628
 30
0.0
 11
27.13996717716277
 21
136.7582935701628
 31
0.0
  0
LINE
  5
BC
330
24
100
AcDbEntity
  8
0
  6
Continuous
 62
     7
370
    25
100
AcDbLine
 10
-7.753509029637218
 20
139.0510402169629
 30
0.0
 11
9.058102531062769
 21
143.2428686305628
 31
0.0
  0
ARC
  5
BD
330
24
100
AcDbEntity
  8
0
  6
Continuous
 62
     7
370
    25
100
AcDbCircle
 10
27.99391414456279
 20
134.4678645327629
 30
0.0
 40
1.452988715217793
100
AcDbArc
 50
70.64599717060078
 51
104.9356343261998
  0
POLYLINE
  5
BE
330
24
100
AcDbEntity
  8
0
  6
Continuous
 62
     7
370
    25
100
AcDb2dPolyline
 66
     1
 10
0.0
 20
0.0
 30
0.0
 75
     5
  0
VERTEX
  5
BF
330
BE
100
AcDbEntity
  8
0
  6
Continuous
 62
     7
370
    25
100
AcDbVertex
100
AcDb2dVertex
 10
-7.753509029637218
 20
139.0510402169629
 30
0.0
  0
VERTEX
  5
C0
330
BE
100
AcDbEntity
  8
0
  6
Continuous
 62
     7
370
    25
100
AcDbVertex
100
AcDb2dVertex
 10
-7.840086763137226
 20
139.0692738740628
 30
0.0
  0
VERTEX
  5
C1
330
BE
100
AcDbEntity
  8
0
  6
Continuous
 62
     7
370
    25
100
AcDbVertex
100
AcDb2dVertex
 10
-7.923207373037219
 20
139.0611299619629
 30
0.0
  0
VERTEX
  5
C2
330
BE
100
AcDbEntity
  8
0
  6
Continuous
 62
     7
370
    25
100
AcDbVertex
100
AcDb2dVertex
 10
-7.999676581037239
 20
139.0269214464628
 30
0.0
  0
VERTEX
  5
C3
330
BE
100
AcDbEntity
  8
0
  6
Continuous
 62
     7
370
    25
100
AcDbVertex
100
AcDb2dVertex
 10
-8.06655571833723
 20
138.9679629416628
 30
0.0
  0
VERTEX
  5
C4
330
BE
100
AcDbEntity
  8
0
  6
Continuous
 62
     7
370
    25
100
AcDbVertex
100
AcDb2dVertex
 10
-8.121274657237212
 20
138.8865201897628
 30
0.0
  0
VERTEX
  5
C5
330
BE
100
AcDbEntity
  8
0
  6
Continuous
 62
     7
370
    25
100
AcDbVertex
100
AcDb2dVertex
 10
-8.16173057953721
 20
138.7857229902629
 30
0.0
  0
VERTEX
  5
C6
330
BE
100
AcDbEntity
  8
0
  6
Continuous
 62
     7
370
    25
100
AcDbVertex
100
AcDb2dVertex
 10
-8.179904885237239
 20
138.7100918847628
 30
0.0
  0
SEQEND
  5
C7
330
BE
100
AcDbEntity
  8
0
  6
Continuous
 62
     7
370
    25
  0
POLYLINE
  5
C8
330
24
100
AcDbEntity
  8
0
  6
Continuous
 62
     7
370
    25
100
AcDb2dPolyline
 66
     1
 10
0.0
 20
0.0
 30
0.0
 75
     5
  0
VERTEX
  5
C9
330
C8
100
AcDbEntity
  8
0
  6
Continuous
 62
     7
370
    25
100
AcDbVertex
100
AcDb2dVertex
 10
8.89213128346277
 20
143.2539175321629
 30
0.0
  0
VERTEX
  5
CA
330
C8
100
AcDbEntity
  8
0
  6
Continuous
 62
     7
370
    25
100
AcDbVertex
100
AcDb2dVertex
 10
8.971524797662777
 20
143.2611022877629
 30
0.0
  0
VERTEX
  5
CB
330
C8
100
AcDbEntity
  8
0
  6
Continuous
 62
     7
370
    25
100
AcDbVertex
100
AcDb2dVertex
 10
9.058102531062769
 20
143.2428686305628
 30
0.0
  0
SEQEND
  5
CC
330
C8
100
AcDbEntity
  8
0
  6
Continuous
 62
     7
370
    25
  0
POLYLINE
  5
CD
330
24
100
AcDbEntity
  8
0
  6
Continuous
 62
     7
370
    25
100
AcDb2dPolyline
 66
     1
 10
0.0
 20
0.0
 30
0.0
 75
     5
  0
VERTEX
  5
CE
330
CD
100
AcDbEntity
  8
0
  6
Continuous
 62
     7
370
    25
100
AcDbVertex
100
AcDb2dVertex
 10
-7.447221692237225
 20
-98.65237295343717
 30
0.0
  0
VERTEX
  5
CF
330
CD
100
AcDbEntity
  8
0
  6
Continuous
 62
     7
370
    25
100
AcDbVertex
100
AcDb2dVertex
 10
-7.528914207437243
 20
-98.61630402423717
 30
0.0
  0
VERTEX
  5
D0
330
CD
100
AcDbEntity
  8
0
  6
Continuous
 62
     7
370
    25
100
AcDbVertex
100
AcDb2dVertex
 10
-7.585189366437238
 20
-98.57606638943717
 30
0.0
  0
VERTEX
  5
D1
330
CD
100
AcDbEntity
  8
0
  6
Continuous
 62
     7
370
    25
100
AcDbVertex
100
AcDb2dVertex
 10
-7.613884546237205
 20
-98.53320635883716
 30
0.0
  0
VERTEX
  5
D2
330
CD
100
AcDbEntity
  8
0
  6
Continuous
 62
     7
370
    25
100
AcDbVertex
100
AcDb2dVertex
 10
-7.617501338037233
 20
-98.51162399153716
 30
0.0
  0
SEQEND
  5
D3
330
CD
100
AcDbEntity
  8
0
  6
Continuous
 62
     7
370
    25
  0
POLYLINE
  5
D4
330
24
100
AcDbEntity
  8
0
  6
Continuous
 62
     7
370
    25
100
AcDb2dPolyline
 66
     1
 10
0.0
 20
0.0
 30
0.0
 75
     5
  0
VERTEX
  5
D5
330
D4
100
AcDbEntity
  8
0
  6
Continuous
 62
     7
370
    25
100
AcDbVertex
100
AcDb2dVertex
 10
-8.542949100537232
 20
138.6195699825628
 30
0.0
  0
VERTEX
  5
D6
330
D4
100
AcDbEntity
  8
0
  6
Continuous
 62
     7
370
    25
100
AcDbVertex
100
AcDb2dVertex
 10
-8.646901951937242
 20
138.5880915657629
 30
0.0
  0
VERTEX
  5
D7
330
D4
100
AcDbEntity
  8
0
  6
Continuous
 62
     7
370
    25
100
AcDbVertex
100
AcDb2dVertex
 10
-8.728573745237231
 20
138.5512649893628
 30
0.0
  0
VERTEX
  5
D8
330
D4
100
AcDbEntity
  8
0
  6
Continuous
 62
     7
370
    25
100
AcDbVertex
100
AcDb2dVertex
 10
-8.78482587913722
 20
138.5105054781628
 30
0.0
  0
VERTEX
  5
D9
330
D4
100
AcDbEntity
  8
0
  6
Continuous
 62
     7
370
    25
100
AcDbVertex
100
AcDb2dVertex
 10
-8.813496615737211
 20
138.4673793972628
 30
0.0
  0
VERTEX
  5
DA
330
D4
100
AcDbEntity
  8
0
  6
Continuous
 62
     7
370
    25
100
AcDbVertex
100
AcDb2dVertex
 10
-8.813484154737228
 20
138.4235440576629
 30
0.0
  0
VERTEX
  5
DB
330
D4
100
AcDbEntity
  8
0
  6
Continuous
 62
     7
370
    25
100
AcDbVertex
100
AcDb2dVertex
 10
-8.784788974837216
 20
138.3806840270628
 30
0.0
  0
VERTEX
  5
DC
330
D4
100
AcDbEntity
  8
0
  6
Continuous
 62
     7
370
    25
100
AcDbVertex
100
AcDb2dVertex
 10
-8.728513815937209
 20
138.3404463922628
 30
0.0
  0
VERTEX
  5
DD
330
D4
100
AcDbEntity
  8
0
  6
Continuous
 62
     7
370
    25
100
AcDbVertex
100
AcDb2dVertex
 10
-8.646821300637232
 20
138.3043774631628
 30
0.0
  0
SEQEND
  5
DE
330
D4
100
AcDbEntity
  8
0
  6
Continuous
 62
     7
370
    25
  0
POLYLINE
  5
DF
330
24
100
AcDbEntity
  8
0
  6
Continuous
 62
     7
370
    25
100
AcDb2dPolyline
 66
     1
 10
0.0
 20
0.0
 30
0.0
 75
     5
  0
VERTEX
  5
E0
330
DF
100
AcDbEntity
  8
0
  6
Continuous
 62
     7
370
    25
100
AcDbVertex
100
AcDb2dVertex
 10
-8.283919402037231
 20
138.4850337545628
 30
0.0
  0
VERTEX
  5
E1
330
DF
100
AcDbEntity
  8
0
  6
Continuous
 62
     7
370
    25
100
AcDbVertex
100
AcDb2dVertex
 10
-8.287598286537207
 20
138.4830371767629
 30
0.0
  0
VERTEX
  5
E2
330
DF
100
AcDbEntity
  8
0
  6
Continuous
 62
     7
370
    25
100
AcDbVertex
100
AcDb2dVertex
 10
-8.306348997837222
 20
138.4694506730629
 30
0.0
  0
VERTEX
  5
E3
330
DF
100
AcDbEntity
  8
0
  6
Continuous
 62
     7
370
    25
100
AcDbVertex
100
AcDb2dVertex
 10
-8.31590591003722
 20
138.4550753127629
 30
0.0
  0
VERTEX
  5
E4
330
DF
100
AcDbEntity
  8
0
  6
Continuous
 62
     7
370
    25
100
AcDbVertex
100
AcDb2dVertex
 10
-8.31590175633723
 20
138.4404635328629
 30
0.0
  0
VERTEX
  5
E5
330
DF
100
AcDbEntity
  8
0
  6
Continuous
 62
     7
370
    25
100
AcDbVertex
100
AcDb2dVertex
 10
-8.306336696437246
 20
138.4261768560629
 30
0.0
  0
VERTEX
  5
E6
330
DF
100
AcDbEntity
  8
0
  6
Continuous
 62
     7
370
    25
100
AcDbVertex
100
AcDb2dVertex
 10
-8.301590558537232
 20
138.4219906704628
 30
0.0
  0
SEQEND
  5
E7
330
DF
100
AcDbEntity
  8
0
  6
Continuous
 62
     7
370
    25
  0
LINE
  5
E8
330
24
100
AcDbEntity
  8
0
  6
Continuous
 62
     7
370
    25
100
AcDbLine
 10
-8.181279059237216
 20
138.7097492464629
 30
0.0
 11
-8.542949100537232
 21
138.6195699825628
 31
0.0
  0
LINE
  5
E9
330
24
100
AcDbEntity
  8
0
  6
Continuous
 62
     7
370
    25
100
AcDbLine
 10
0.4928455323627752
 20
66.89999345936285
 30
0.0
 11
0.1063717033627647
 21
66.80362958776284
 31
0.0
  0
ARC
  5
EA
330
24
100
AcDbEntity
  8
0
  6
Continuous
 62
     7
370
    25
100
AcDbCircle
 10
1.689348980462778
 20
67.02498084946284
 30
0.0
 40
1.203013860626204
100
AcDbArc
 50
131.1803950303003
 51
185.9635192168994
  0
LINE
  5
EB
330
24
100
AcDbEntity
  8
0
  6
Continuous
 62
     7
370
    25
100
AcDbLine
 10
0.5073422043627822
 20
64.03646777456284
 30
0.0
 11
0.1208683754627593
 21
63.94010390296283
 31
0.0
  0
ARC
  5
EC
330
24
100
AcDbEntity
  8
0
  6
Continuous
 62
     7
370
    25
100
AcDbCircle
 10
2.279661409862779
 20
63.87947711746283
 30
0.0
 40
1.779258674932362
100
AcDbArc
 50
174.9379961121998
 51
248.2319012831
  0
LINE
  5
ED
330
24
100
AcDbEntity
  8
0
  6
Continuous
 62
     7
370
    25
100
AcDbLine
 10
0.5073422043627822
 20
64.03646777456284
 30
0.0
 11
0.4928455323627752
 21
66.89999345936285
 31
0.0
  0
LINE
  5
EE
330
24
100
AcDbEntity
  8
0
  6
Continuous
 62
     7
370
    25
100
AcDbLine
 10
17.22600629376278
 20
-104.2112908154372
 30
0.0
 11
17.22578976496278
 21
-104.1685199144372
 31
0.0
  0
LINE
  5
EF
330
24
100
AcDbEntity
  8
0
  6
Continuous
 62
     7
370
    25
100
AcDbLine
 10
-29.47759550473721
 20
-127.1838584815372
 30
0.0
 11
-29.48242772873722
 21
-126.2293499199371
 31
0.0
  0
ARC
  5
F0
330
24
100
AcDbEntity
  8
0
  6
Continuous
 62
     7
370
    25
100
AcDbCircle
 10
-27.55627384053723
 20
-119.5230266047372
 30
0.0
 40
6.977452343673799
100
AcDbArc
 50
253.9751622649002
 51
283.1918729142001
  0
LINE
  5
F1
330
24
100
AcDbEntity
  8
0
  6
Continuous
 62
     7
370
    25
100
AcDbLine
 10
-25.96393010603724
 20
-126.3163529357372
 30
0.0
 11
-25.95909788203723
 21
-127.2708614973372
 31
0.0
  0
ARC
  5
F2
330
24
100
AcDbEntity
  8
0
  6
Continuous
 62
     7
370
    25
100
AcDbCircle
 10
-27.55144161653722
 20
-120.4775351663371
 30
0.0
 40
6.977452343673654
100
AcDbArc
 50
253.9751622649001
 51
283.1918729142001
  0
POLYLINE
  5
F3
330
24
100
AcDbEntity
  8
0
  6
Continuous
 62
     7
370
    25
100
AcDb2dPolyline
 66
     1
 10
0.0
 20
0.0
 30
0.0
 75
     5
  0
VERTEX
  5
F4
330
F3
100
AcDbEntity
  8
0
  6
Continuous
 62
     7
370
    25
100
AcDbVertex
100
AcDb2dVertex
 10
66.78978884986277
 20
-103.1890237570372
 30
0.0
  0
VERTEX
  5
F5
330
F3
100
AcDbEntity
  8
0
  6
Continuous
 62
     7
370
    25
100
AcDbVertex
100
AcDb2dVertex
 10
67.13629835456278
 20
-103.0840957009372
 30
0.0
  0
VERTEX
  5
F6
330
F3
100
AcDbEntity
  8
0
  6
Continuous
 62
     7
370
    25
100
AcDbVertex
100
AcDb2dVertex
 10
67.40853766556278
 20
-102.9613404463372
 30
0.0
  0
VERTEX
  5
F7
330
F3
100
AcDbEntity
  8
0
  6
Continuous
 62
     7
370
    25
100
AcDbVertex
100
AcDb2dVertex
 10
67.59604477866277
 20
-102.8254754089372
 30
0.0
  0
VERTEX
  5
F8
330
F3
100
AcDbEntity
  8
0
  6
Continuous
 62
     7
370
    25
100
AcDbVertex
100
AcDb2dVertex
 10
67.69161390066277
 20
-102.6817218057372
 30
0.0
  0
VERTEX
  5
F9
330
F3
100
AcDbEntity
  8
0
  6
Continuous
 62
     7
370
    25
100
AcDbVertex
100
AcDb2dVertex
 10
67.69157236376277
 20
-102.5356040073372
 30
0.0
  0
VERTEX
  5
FA
330
F3
100
AcDbEntity
  8
0
  6
Continuous
 62
     7
370
    25
100
AcDbVertex
100
AcDb2dVertex
 10
67.59592176436279
 20
-102.3927372385372
 30
0.0
  0
VERTEX
  5
FB
330
F3
100
AcDbEntity
  8
0
  6
Continuous
 62
     7
370
    25
100
AcDbVertex
100
AcDb2dVertex
 10
67.40833790116277
 20
-102.2586117893372
 30
0.0
  0
VERTEX
  5
FC
330
F3
100
AcDbEntity
  8
0
  6
Continuous
 62
     7
370
    25
100
AcDbVertex
100
AcDb2dVertex
 10
67.13602951696278
 20
-102.1383820254372
 30
0.0
  0
SEQEND
  5
FD
330
F3
100
AcDbEntity
  8
0
  6
Continuous
 62
     7
370
    25
  0
LINE
  5
FE
330
24
100
AcDbEntity
  8
0
  6
Continuous
 62
     7
370
    25
100
AcDbLine
 10
-25.96393010603724
 20
-126.3163529357372
 30
0.0
 11
66.78978884986277
 21
-103.1890237570372
 31
0.0
  0
LINE
  5
FF
330
24
100
AcDbEntity
  8
0
  6
Continuous
 62
     7
370
    25
100
AcDbLine
 10
-83.4107959714372
 20
-106.8893892134372
 30
0.0
 11
-29.48242772873722
 21
-126.2293499199371
 31
0.0
  0
POLYLINE
  5
100
330
24
100
AcDbEntity
  8
0
  6
Continuous
 62
     7
370
    25
100
AcDb2dPolyline
 66
     1
 10
0.0
 20
0.0
 30
0.0
 75
     5
  0
VERTEX
  5
101
330
100
100
AcDbEntity
  8
0
  6
Continuous
 62
     7
370
    25
100
AcDbVertex
100
AcDb2dVertex
 10
-83.0645553042372
 20
-105.8387474818372
 30
0.0
  0
VERTEX
  5
102
330
100
100
AcDbEntity
  8
0
  6
Continuous
 62
     7
370
    25
100
AcDbVertex
100
AcDb2dVertex
 10
-83.4110648090372
 20
-105.9436755379372
 30
0.0
  0
VERTEX
  5
103
330
100
100
AcDbEntity
  8
0
  6
Continuous
 62
     7
370
    25
100
AcDbVertex
100
AcDb2dVertex
 10
-83.68330411993723
 20
-106.0664307924372
 30
0.0
  0
VERTEX
  5
104
330
100
100
AcDbEntity
  8
0
  6
Continuous
 62
     7
370
    25
100
AcDbVertex
100
AcDb2dVertex
 10
-83.8708112330372
 20
-106.2022958299372
 30
0.0
  0
VERTEX
  5
105
330
100
100
AcDbEntity
  8
0
  6
Continuous
 62
     7
370
    25
100
AcDbVertex
100
AcDb2dVertex
 10
-83.96638035503723
 20
-106.3460494330372
 30
0.0
  0
VERTEX
  5
106
330
100
100
AcDbEntity
  8
0
  6
Continuous
 62
     7
370
    25
100
AcDbVertex
100
AcDb2dVertex
 10
-83.96633881823725
 20
-106.4921672315372
 30
0.0
  0
VERTEX
  5
107
330
100
100
AcDbEntity
  8
0
  6
Continuous
 62
     7
370
    25
100
AcDbVertex
100
AcDb2dVertex
 10
-83.87068821873724
 20
-106.6350340002372
 30
0.0
  0
VERTEX
  5
108
330
100
100
AcDbEntity
  8
0
  6
Continuous
 62
     7
370
    25
100
AcDbVertex
100
AcDb2dVertex
 10
-83.68310435563721
 20
-106.7691594495372
 30
0.0
  0
VERTEX
  5
109
330
100
100
AcDbEntity
  8
0
  6
Continuous
 62
     7
370
    25
100
AcDbVertex
100
AcDb2dVertex
 10
-83.4107959714372
 20
-106.8893892134372
 30
0.0
  0
SEQEND
  5
10A
330
100
100
AcDbEntity
  8
0
  6
Continuous
 62
     7
370
    25
  0
LINE
  5
10B
330
24
100
AcDbEntity
  8
0
  6
Continuous
 62
     7
370
    25
100
AcDbLine
 10
-7.675570839637221
 20
-87.04116308533716
 30
0.0
 11
-83.0645553042372
 21
-105.8387474818372
 31
0.0
  0
LINE
  5
10C
330
24
100
AcDbEntity
  8
0
  6
Continuous
 62
     7
370
    25
100
AcDbLine
 10
67.13602951696278
 20
-102.1383820254372
 30
0.0
 11
31.01023268786276
 21
-89.18283536353717
 31
0.0
  0
LINE
  5
10D
330
24
100
AcDbEntity
  8
0
  6
Continuous
 62
     7
370
    25
100
AcDbLine
 10
28.90839421126277
 20
-101.3519955634372
 30
0.0
 11
17.31417934176279
 21
-104.2429117107372
 31
0.0
  0
LINE
  5
10E
330
24
100
AcDbEntity
  8
0
  6
Continuous
 62
     7
370
    25
100
AcDbLine
 10
28.74978136346278
 20
-101.2951133260372
 30
0.0
 11
28.90839421126277
 21
-101.3519955634372
 31
0.0
  0
LINE
  5
10F
330
24
100
AcDbEntity
  8
0
  6
Continuous
 62
     7
370
    25
100
AcDbLine
 10
17.31417934176279
 20
-104.2429117107372
 30
0.0
 11
17.15556649406279
 21
-104.1860294733372
 31
0.0
  0
LINE
  5
110
330
24
100
AcDbEntity
  8
0
  6
Continuous
 62
     7
370
    25
100
AcDbLine
 10
6.669321759562774
 20
-103.7148920795372
 30
0.0
 11
6.282847930562763
 21
-103.8112559511372
 31
0.0
  0
LINE
  5
111
330
24
100
AcDbEntity
  8
0
  6
Continuous
 62
     7
370
    25
100
AcDbLine
 10
-3.233922935837246
 20
-100.3983217088372
 30
0.0
 11
-2.847449106837235
 21
-100.3019578372372
 31
0.0
  0
LINE
  5
112
330
24
100
AcDbEntity
  8
0
  6
Continuous
 62
     7
370
    25
100
AcDbLine
 10
6.282847930562763
 20
-103.8112559511372
 30
0.0
 11
-3.233922935837246
 21
-100.3983217088372
 31
0.0
  0
POLYLINE
  5
113
330
24
100
AcDbEntity
  8
0
  6
Continuous
 62
     7
370
    25
100
AcDb2dPolyline
 66
     1
 10
0.0
 20
0.0
 30
0.0
 75
     5
  0
VERTEX
  5
114
330
113
100
AcDbEntity
  8
0
  6
Continuous
 62
     7
370
    25
100
AcDbVertex
100
AcDb2dVertex
 10
-24.13214386563722
 20
-123.4488389277372
 30
0.0
  0
VERTEX
  5
115
330
113
100
AcDbEntity
  8
0
  6
Continuous
 62
     7
370
    25
100
AcDbVertex
100
AcDb2dVertex
 10
-23.63255403393724
 20
-123.5844381987372
 30
0.0
  0
VERTEX
  5
116
330
113
100
AcDbEntity
  8
0
  6
Continuous
 62
     7
370
    25
100
AcDbVertex
100
AcDb2dVertex
 10
-23.02670151513722
 20
-123.6742463545372
 30
0.0
  0
VERTEX
  5
117
330
113
100
AcDbEntity
  8
0
  6
Continuous
 62
     7
370
    25
100
AcDbVertex
100
AcDb2dVertex
 10
-22.35951961893723
 20
-123.7116027350372
 30
0.0
  0
VERTEX
  5
118
330
113
100
AcDbEntity
  8
0
  6
Continuous
 62
     7
370
    25
100
AcDbVertex
100
AcDb2dVertex
 10
-21.68049017443723
 20
-123.6937367884372
 30
0.0
  0
VERTEX
  5
119
330
113
100
AcDbEntity
  8
0
  6
Continuous
 62
     7
370
    25
100
AcDbVertex
100
AcDb2dVertex
 10
-21.03997368913723
 20
-123.6219735502372
 30
0.0
  0
VERTEX
  5
11A
330
113
100
AcDbEntity
  8
0
  6
Continuous
 62
     7
370
    25
100
AcDbVertex
100
AcDb2dVertex
 10
-20.48547434063723
 20
-123.5016353715371
 30
0.0
  0
VERTEX
  5
11B
330
113
100
AcDbEntity
  8
0
  6
Continuous
 62
     7
370
    25
100
AcDbVertex
100
AcDb2dVertex
 10
-20.05811680883723
 20
-123.3416471845372
 30
0.0
  0
VERTEX
  5
11C
330
113
100
AcDbEntity
  8
0
  6
Continuous
 62
     7
370
    25
100
AcDbVertex
100
AcDb2dVertex
 10
-19.78959624703724
 20
-123.1538745811372
 30
0.0
  0
VERTEX
  5
11D
330
113
100
AcDbEntity
  8
0
  6
Continuous
 62
     7
370
    25
100
AcDbVertex
100
AcDb2dVertex
 10
-19.69982759673723
 20
-122.9522437964372
 30
0.0
  0
VERTEX
  5
11E
330
113
100
AcDbEntity
  8
0
  6
Continuous
 62
     7
370
    25
100
AcDbVertex
100
AcDb2dVertex
 10
-19.79546858813721
 20
-122.7517088631372
 30
0.0
  0
VERTEX
  5
11F
330
113
100
AcDbEntity
  8
0
  6
Continuous
 62
     7
370
    25
100
AcDbVertex
100
AcDb2dVertex
 10
-20.06942596643721
 20
-122.5671425400372
 30
0.0
  0
VERTEX
  5
120
330
113
100
AcDbEntity
  8
0
  6
Continuous
 62
     7
370
    25
100
AcDbVertex
100
AcDb2dVertex
 10
-20.50138156613723
 20
-122.4122332669372
 30
0.0
  0
VERTEX
  5
121
330
113
100
AcDbEntity
  8
0
  6
Continuous
 62
     7
370
    25
100
AcDbVertex
100
AcDb2dVertex
 10
-21.05929921653722
 20
-122.2984699559372
 30
0.0
  0
VERTEX
  5
122
330
113
100
AcDbEntity
  8
0
  6
Continuous
 62
     7
370
    25
100
AcDbVertex
100
AcDb2dVertex
 10
-21.70180071763723
 20
-122.2342899113372
 30
0.0
  0
VERTEX
  5
123
330
113
100
AcDbEntity
  8
0
  6
Continuous
 62
     7
370
    25
100
AcDbVertex
100
AcDb2dVertex
 10
-22.38123467253722
 20
-122.2244530735372
 30
0.0
  0
VERTEX
  5
124
330
113
100
AcDbEntity
  8
0
  6
Continuous
 62
     7
370
    25
100
AcDbVertex
100
AcDb2dVertex
 10
-23.04721057293721
 20
-122.2696889958372
 30
0.0
  0
VERTEX
  5
125
330
113
100
AcDbEntity
  8
0
  6
Continuous
 62
     7
370
    25
100
AcDbVertex
100
AcDb2dVertex
 10
-23.65033603293721
 20
-122.3666427366372
 30
0.0
  0
VERTEX
  5
126
330
113
100
AcDbEntity
  8
0
  6
Continuous
 62
     7
370
    25
100
AcDbVertex
100
AcDb2dVertex
 10
-24.14587999623722
 20
-122.5081236806372
 30
0.0
  0
VERTEX
  5
127
330
113
100
AcDbEntity
  8
0
  6
Continuous
 62
     7
370
    25
100
AcDbVertex
100
AcDb2dVertex
 10
-24.49709023413722
 20
-122.6836388334372
 30
0.0
  0
VERTEX
  5
128
330
113
100
AcDbEntity
  8
0
  6
Continuous
 62
     7
370
    25
100
AcDbVertex
100
AcDb2dVertex
 10
-24.67791908993722
 20
-122.8801710390372
 30
0.0
  0
VERTEX
  5
129
330
113
100
AcDbEntity
  8
0
  6
Continuous
 62
     7
370
    25
100
AcDbVertex
100
AcDb2dVertex
 10
-24.67495531463722
 20
-123.0831444029372
 30
0.0
  0
VERTEX
  5
12A
330
113
100
AcDbEntity
  8
0
  6
Continuous
 62
     7
370
    25
100
AcDbVertex
100
AcDb2dVertex
 10
-24.48841871783724
 20
-123.2775053191372
 30
0.0
  0
VERTEX
  5
12B
330
113
100
AcDbEntity
  8
0
  6
Continuous
 62
     7
370
    25
100
AcDbVertex
100
AcDb2dVertex
 10
-24.13214386563722
 20
-123.4488389277372
 30
0.0
  0
SEQEND
  5
12C
330
113
100
AcDbEntity
  8
0
  6
Continuous
 62
     7
370
    25
  0
POLYLINE
  5
12D
330
24
100
AcDbEntity
  8
0
  6
Continuous
 62
     7
370
    25
100
AcDb2dPolyline
 66
     1
 10
0.0
 20
0.0
 30
0.0
 75
     5
  0
VERTEX
  5
12E
330
12D
100
AcDbEntity
  8
0
  6
Continuous
 62
     7
370
    25
100
AcDbVertex
100
AcDb2dVertex
 10
53.16262193096277
 20
-104.1760646121372
 30
0.0
  0
VERTEX
  5
12F
330
12D
100
AcDbEntity
  8
0
  6
Continuous
 62
     7
370
    25
100
AcDbVertex
100
AcDb2dVertex
 10
53.66221176256279
 20
-104.3116638831372
 30
0.0
  0
VERTEX
  5
130
330
12D
100
AcDbEntity
  8
0
  6
Continuous
 62
     7
370
    25
100
AcDbVertex
100
AcDb2dVertex
 10
54.26806428136278
 20
-104.4014720389372
 30
0.0
  0
VERTEX
  5
131
330
12D
100
AcDbEntity
  8
0
  6
Continuous
 62
     7
370
    25
100
AcDbVertex
100
AcDb2dVertex
 10
54.93524617756277
 20
-104.4388284194372
 30
0.0
  0
VERTEX
  5
132
330
12D
100
AcDbEntity
  8
0
  6
Continuous
 62
     7
370
    25
100
AcDbVertex
100
AcDb2dVertex
 10
55.61427562216279
 20
-104.4209624728372
 30
0.0
  0
VERTEX
  5
133
330
12D
100
AcDbEntity
  8
0
  6
Continuous
 62
     7
370
    25
100
AcDbVertex
100
AcDb2dVertex
 10
56.25479210746279
 20
-104.3491992346372
 30
0.0
  0
VERTEX
  5
134
330
12D
100
AcDbEntity
  8
0
  6
Continuous
 62
     7
370
    25
100
AcDbVertex
100
AcDb2dVertex
 10
56.80929145596276
 20
-104.2288610559372
 30
0.0
  0
VERTEX
  5
135
330
12D
100
AcDbEntity
  8
0
  6
Continuous
 62
     7
370
    25
100
AcDbVertex
100
AcDb2dVertex
 10
57.23664898766278
 20
-104.0688728689372
 30
0.0
  0
VERTEX
  5
136
330
12D
100
AcDbEntity
  8
0
  6
Continuous
 62
     7
370
    25
100
AcDbVertex
100
AcDb2dVertex
 10
57.50516954956278
 20
-103.8811002655372
 30
0.0
  0
VERTEX
  5
137
330
12D
100
AcDbEntity
  8
0
  6
Continuous
 62
     7
370
    25
100
AcDbVertex
100
AcDb2dVertex
 10
57.59493819976278
 20
-103.6794694808372
 30
0.0
  0
VERTEX
  5
138
330
12D
100
AcDbEntity
  8
0
  6
Continuous
 62
     7
370
    25
100
AcDbVertex
100
AcDb2dVertex
 10
57.49929720836276
 20
-103.4789345475372
 30
0.0
  0
VERTEX
  5
139
330
12D
100
AcDbEntity
  8
0
  6
Continuous
 62
     7
370
    25
100
AcDbVertex
100
AcDb2dVertex
 10
57.22533983006277
 20
-103.2943682244372
 30
0.0
  0
VERTEX
  5
13A
330
12D
100
AcDbEntity
  8
0
  6
Continuous
 62
     7
370
    25
100
AcDbVertex
100
AcDb2dVertex
 10
56.79338423046279
 20
-103.1394589513372
 30
0.0
  0
VERTEX
  5
13B
330
12D
100
AcDbEntity
  8
0
  6
Continuous
 62
     7
370
    25
100
AcDbVertex
100
AcDb2dVertex
 10
56.23546658006278
 20
-103.0256956403372
 30
0.0
  0
VERTEX
  5
13C
330
12D
100
AcDbEntity
  8
0
  6
Continuous
 62
     7
370
    25
100
AcDbVertex
100
AcDb2dVertex
 10
55.59296507896279
 20
-102.9615155957372
 30
0.0
  0
VERTEX
  5
13D
330
12D
100
AcDbEntity
  8
0
  6
Continuous
 62
     7
370
    25
100
AcDbVertex
100
AcDb2dVertex
 10
54.91353112406277
 20
-102.9516787579372
 30
0.0
  0
VERTEX
  5
13E
330
12D
100
AcDbEntity
  8
0
  6
Continuous
 62
     7
370
    25
100
AcDbVertex
100
AcDb2dVertex
 10
54.24755522366279
 20
-102.9969146802372
 30
0.0
  0
VERTEX
  5
13F
330
12D
100
AcDbEntity
  8
0
  6
Continuous
 62
     7
370
    25
100
AcDbVertex
100
AcDb2dVertex
 10
53.64442976366279
 20
-103.0938684210372
 30
0.0
  0
VERTEX
  5
140
330
12D
100
AcDbEntity
  8
0
  6
Continuous
 62
     7
370
    25
100
AcDbVertex
100
AcDb2dVertex
 10
53.14888580026276
 20
-103.2353493650372
 30
0.0
  0
VERTEX
  5
141
330
12D
100
AcDbEntity
  8
0
  6
Continuous
 62
     7
370
    25
100
AcDbVertex
100
AcDb2dVertex
 10
52.79767556246277
 20
-103.4108645178372
 30
0.0
  0
VERTEX
  5
142
330
12D
100
AcDbEntity
  8
0
  6
Continuous
 62
     7
370
    25
100
AcDbVertex
100
AcDb2dVertex
 10
52.61684670666277
 20
-103.6073967234372
 30
0.0
  0
VERTEX
  5
143
330
12D
100
AcDbEntity
  8
0
  6
Continuous
 62
     7
370
    25
100
AcDbVertex
100
AcDb2dVertex
 10
52.61981048196277
 20
-103.8103700873372
 30
0.0
  0
VERTEX
  5
144
330
12D
100
AcDbEntity
  8
0
  6
Continuous
 62
     7
370
    25
100
AcDbVertex
100
AcDb2dVertex
 10
52.80634707876278
 20
-104.0047310035372
 30
0.0
  0
VERTEX
  5
145
330
12D
100
AcDbEntity
  8
0
  6
Continuous
 62
     7
370
    25
100
AcDbVertex
100
AcDb2dVertex
 10
53.16262193096277
 20
-104.1760646121372
 30
0.0
  0
SEQEND
  5
146
330
12D
100
AcDbEntity
  8
0
  6
Continuous
 62
     7
370
    25
  0
POLYLINE
  5
147
330
24
100
AcDbEntity
  8
0
  6
Continuous
 62
     7
370
    25
100
AcDb2dPolyline
 66
     1
 10
0.0
 20
0.0
 30
0.0
 75
     5
  0
VERTEX
  5
148
330
147
100
AcDbEntity
  8
0
  6
Continuous
 62
     7
370
    25
100
AcDbVertex
100
AcDb2dVertex
 10
-73.30212667513722
 20
-105.8153453424372
 30
0.0
  0
VERTEX
  5
149
330
147
100
AcDbEntity
  8
0
  6
Continuous
 62
     7
370
    25
100
AcDbVertex
100
AcDb2dVertex
 10
-72.80253684343721
 20
-105.9509446134372
 30
0.0
  0
VERTEX
  5
14A
330
147
100
AcDbEntity
  8
0
  6
Continuous
 62
     7
370
    25
100
AcDbVertex
100
AcDb2dVertex
 10
-72.19668432463725
 20
-106.0407527692372
 30
0.0
  0
VERTEX
  5
14B
330
147
100
AcDbEntity
  8
0
  6
Continuous
 62
     7
370
    25
100
AcDbVertex
100
AcDb2dVertex
 10
-71.52950242843723
 20
-106.0781091497372
 30
0.0
  0
VERTEX
  5
14C
330
147
100
AcDbEntity
  8
0
  6
Continuous
 62
     7
370
    25
100
AcDbVertex
100
AcDb2dVertex
 10
-70.8504729839372
 20
-106.0602432031372
 30
0.0
  0
VERTEX
  5
14D
330
147
100
AcDbEntity
  8
0
  6
Continuous
 62
     7
370
    25
100
AcDbVertex
100
AcDb2dVertex
 10
-70.2099564986372
 20
-105.9884799649372
 30
0.0
  0
VERTEX
  5
14E
330
147
100
AcDbEntity
  8
0
  6
Continuous
 62
     7
370
    25
100
AcDbVertex
100
AcDb2dVertex
 10
-69.65545715013722
 20
-105.8681417862372
 30
0.0
  0
VERTEX
  5
14F
330
147
100
AcDbEntity
  8
0
  6
Continuous
 62
     7
370
    25
100
AcDbVertex
100
AcDb2dVertex
 10
-69.22809961843721
 20
-105.7081535992372
 30
0.0
  0
VERTEX
  5
150
330
147
100
AcDbEntity
  8
0
  6
Continuous
 62
     7
370
    25
100
AcDbVertex
100
AcDb2dVertex
 10
-68.95957905653721
 20
-105.5203809958372
 30
0.0
  0
VERTEX
  5
151
330
147
100
AcDbEntity
  8
0
  6
Continuous
 62
     7
370
    25
100
AcDbVertex
100
AcDb2dVertex
 10
-68.86981040623725
 20
-105.3187502110372
 30
0.0
  0
VERTEX
  5
152
330
147
100
AcDbEntity
  8
0
  6
Continuous
 62
     7
370
    25
100
AcDbVertex
100
AcDb2dVertex
 10
-68.96545139763724
 20
-105.1182152778372
 30
0.0
  0
VERTEX
  5
153
330
147
100
AcDbEntity
  8
0
  6
Continuous
 62
     7
370
    25
100
AcDbVertex
100
AcDb2dVertex
 10
-69.23940877593724
 20
-104.9336489547372
 30
0.0
  0
VERTEX
  5
154
330
147
100
AcDbEntity
  8
0
  6
Continuous
 62
     7
370
    25
100
AcDbVertex
100
AcDb2dVertex
 10
-69.6713643756372
 20
-104.7787396815372
 30
0.0
  0
VERTEX
  5
155
330
147
100
AcDbEntity
  8
0
  6
Continuous
 62
     7
370
    25
100
AcDbVertex
100
AcDb2dVertex
 10
-70.22928202603724
 20
-104.6649763705372
 30
0.0
  0
VERTEX
  5
156
330
147
100
AcDbEntity
  8
0
  6
Continuous
 62
     7
370
    25
100
AcDbVertex
100
AcDb2dVertex
 10
-70.8717835271372
 20
-104.6007963260372
 30
0.0
  0
VERTEX
  5
157
330
147
100
AcDbEntity
  8
0
  6
Continuous
 62
     7
370
    25
100
AcDbVertex
100
AcDb2dVertex
 10
-71.55121748203725
 20
-104.5909594882372
 30
0.0
  0
VERTEX
  5
158
330
147
100
AcDbEntity
  8
0
  6
Continuous
 62
     7
370
    25
100
AcDbVertex
100
AcDb2dVertex
 10
-72.21719338243723
 20
-104.6361954104372
 30
0.0
  0
VERTEX
  5
159
330
147
100
AcDbEntity
  8
0
  6
Continuous
 62
     7
370
    25
100
AcDbVertex
100
AcDb2dVertex
 10
-72.82031884243723
 20
-104.7331491512372
 30
0.0
  0
VERTEX
  5
15A
330
147
100
AcDbEntity
  8
0
  6
Continuous
 62
     7
370
    25
100
AcDbVertex
100
AcDb2dVertex
 10
-73.31586280573724
 20
-104.8746300952372
 30
0.0
  0
VERTEX
  5
15B
330
147
100
AcDbEntity
  8
0
  6
Continuous
 62
     7
370
    25
100
AcDbVertex
100
AcDb2dVertex
 10
-73.66707304363722
 20
-105.0501452480372
 30
0.0
  0
VERTEX
  5
15C
330
147
100
AcDbEntity
  8
0
  6
Continuous
 62
     7
370
    25
100
AcDbVertex
100
AcDb2dVertex
 10
-73.84790189943725
 20
-105.2466774537372
 30
0.0
  0
VERTEX
  5
15D
330
147
100
AcDbEntity
  8
0
  6
Continuous
 62
     7
370
    25
100
AcDbVertex
100
AcDb2dVertex
 10
-73.84493812413722
 20
-105.4496508176372
 30
0.0
  0
VERTEX
  5
15E
330
147
100
AcDbEntity
  8
0
  6
Continuous
 62
     7
370
    25
100
AcDbVertex
100
AcDb2dVertex
 10
-73.6584015273372
 20
-105.6440117338372
 30
0.0
  0
VERTEX
  5
15F
330
147
100
AcDbEntity
  8
0
  6
Continuous
 62
     7
370
    25
100
AcDbVertex
100
AcDb2dVertex
 10
-73.30212667513722
 20
-105.8153453424372
 30
0.0
  0
SEQEND
  5
160
330
147
100
AcDbEntity
  8
0
  6
Continuous
 62
     7
370
    25
  0
ARC
  5
161
330
24
100
AcDbEntity
  8
0
  6
Continuous
 62
     7
370
    25
100
AcDbCircle
 10
-1.843576526837229
 20
-108.7723968388372
 30
0.0
 40
6.977452343673717
100
AcDbArc
 50
253.9751622649
 51
283.1918729141998
  0
LINE
  5
162
330
24
100
AcDbEntity
  8
0
  6
Continuous
 62
     7
370
    25
100
AcDbLine
 10
-0.2512327923372375
 20
-115.5657231698372
 30
0.0
 11
17.14008951196278
 21
-111.2293489488372
 31
0.0
  0
POLYLINE
  5
163
330
24
100
AcDbEntity
  8
0
  6
Continuous
 62
     7
370
    25
100
AcDb2dPolyline
 66
     1
 10
0.0
 20
0.0
 30
0.0
 75
     5
  0
VERTEX
  5
164
330
163
100
AcDbEntity
  8
0
  6
Continuous
 62
     7
370
    25
100
AcDbVertex
100
AcDb2dVertex
 10
17.48633017916277
 20
-110.1787072172372
 30
0.0
  0
VERTEX
  5
165
330
163
100
AcDbEntity
  8
0
  6
Continuous
 62
     7
370
    25
100
AcDbVertex
100
AcDb2dVertex
 10
17.75863856336276
 20
-110.2989369811372
 30
0.0
  0
VERTEX
  5
166
330
163
100
AcDbEntity
  8
0
  6
Continuous
 62
     7
370
    25
100
AcDbVertex
100
AcDb2dVertex
 10
17.94622242646279
 20
-110.4330624304371
 30
0.0
  0
VERTEX
  5
167
330
163
100
AcDbEntity
  8
0
  6
Continuous
 62
     7
370
    25
100
AcDbVertex
100
AcDb2dVertex
 10
18.04187302596277
 20
-110.5759291991371
 30
0.0
  0
VERTEX
  5
168
330
163
100
AcDbEntity
  8
0
  6
Continuous
 62
     7
370
    25
100
AcDbVertex
100
AcDb2dVertex
 10
18.04191456276278
 20
-110.7220469976372
 30
0.0
  0
VERTEX
  5
169
330
163
100
AcDbEntity
  8
0
  6
Continuous
 62
     7
370
    25
100
AcDbVertex
100
AcDb2dVertex
 10
17.94634544076278
 20
-110.8658006007372
 30
0.0
  0
VERTEX
  5
16A
330
163
100
AcDbEntity
  8
0
  6
Continuous
 62
     7
370
    25
100
AcDbVertex
100
AcDb2dVertex
 10
17.75883832766278
 20
-111.0016656382372
 30
0.0
  0
VERTEX
  5
16B
330
163
100
AcDbEntity
  8
0
  6
Continuous
 62
     7
370
    25
100
AcDbVertex
100
AcDb2dVertex
 10
17.48659901676278
 20
-111.1244208927371
 30
0.0
  0
VERTEX
  5
16C
330
163
100
AcDbEntity
  8
0
  6
Continuous
 62
     7
370
    25
100
AcDbVertex
100
AcDb2dVertex
 10
17.14008951196278
 20
-111.2293489488372
 30
0.0
  0
SEQEND
  5
16D
330
163
100
AcDbEntity
  8
0
  6
Continuous
 62
     7
370
    25
  0
LINE
  5
16E
330
24
100
AcDbEntity
  8
0
  6
Continuous
 62
     7
370
    25
100
AcDbLine
 10
17.48633017916277
 20
-110.1787072172372
 30
0.0
 11
-22.16688176403723
 21
-95.95814787423716
 31
0.0
  0
ARC
  5
16F
330
24
100
AcDbEntity
  8
0
  6
Continuous
 62
     7
370
    25
100
AcDbCircle
 10
-24.09303565213724
 20
-102.6644711894372
 30
0.0
 40
6.977452343673842
100
AcDbArc
 50
73.97516226489981
 51
103.1918729141999
  0
LINE
  5
170
330
24
100
AcDbEntity
  8
0
  6
Continuous
 62
     7
370
    25
100
AcDbLine
 10
-25.68537938663723
 20
-95.87114485843716
 30
0.0
 11
-43.07670169093721
 21
-100.2075190794372
 31
0.0
  0
POLYLINE
  5
171
330
24
100
AcDbEntity
  8
0
  6
Continuous
 62
     7
370
    25
100
AcDb2dPolyline
 66
     1
 10
0.0
 20
0.0
 30
0.0
 75
     5
  0
VERTEX
  5
172
330
171
100
AcDbEntity
  8
0
  6
Continuous
 62
     7
370
    25
100
AcDbVertex
100
AcDb2dVertex
 10
-43.42294235803722
 20
-101.2581608110372
 30
0.0
  0
VERTEX
  5
173
330
171
100
AcDbEntity
  8
0
  6
Continuous
 62
     7
370
    25
100
AcDbVertex
100
AcDb2dVertex
 10
-43.69525074223723
 20
-101.1379310471372
 30
0.0
  0
VERTEX
  5
174
330
171
100
AcDbEntity
  8
0
  6
Continuous
 62
     7
370
    25
100
AcDbVertex
100
AcDb2dVertex
 10
-43.8828346054372
 20
-101.0038055978372
 30
0.0
  0
VERTEX
  5
175
330
171
100
AcDbEntity
  8
0
  6
Continuous
 62
     7
370
    25
100
AcDbVertex
100
AcDb2dVertex
 10
-43.97848520483721
 20
-100.8609388291372
 30
0.0
  0
VERTEX
  5
176
330
171
100
AcDbEntity
  8
0
  6
Continuous
 62
     7
370
    25
100
AcDbVertex
100
AcDb2dVertex
 10
-43.97852674173724
 20
-100.7148210306372
 30
0.0
  0
VERTEX
  5
177
330
171
100
AcDbEntity
  8
0
  6
Continuous
 62
     7
370
    25
100
AcDbVertex
100
AcDb2dVertex
 10
-43.88295761973721
 20
-100.5710674275372
 30
0.0
  0
VERTEX
  5
178
330
171
100
AcDbEntity
  8
0
  6
Continuous
 62
     7
370
    25
100
AcDbVertex
100
AcDb2dVertex
 10
-43.69545050663724
 20
-100.4352023900372
 30
0.0
  0
VERTEX
  5
179
330
171
100
AcDbEntity
  8
0
  6
Continuous
 62
     7
370
    25
100
AcDbVertex
100
AcDb2dVertex
 10
-43.42321119573721
 20
-100.3124471355372
 30
0.0
  0
VERTEX
  5
17A
330
171
100
AcDbEntity
  8
0
  6
Continuous
 62
     7
370
    25
100
AcDbVertex
100
AcDb2dVertex
 10
-43.07670169093721
 20
-100.2075190794372
 30
0.0
  0
SEQEND
  5
17B
330
171
100
AcDbEntity
  8
0
  6
Continuous
 62
     7
370
    25
  0
LINE
  5
17C
330
24
100
AcDbEntity
  8
0
  6
Continuous
 62
     7
370
    25
100
AcDbLine
 10
-43.42294235803722
 20
-101.2581608110372
 30
0.0
 11
-3.769730414937232
 21
-115.4787201540372
 31
0.0
  0
LINE
  5
17D
330
24
100
AcDbEntity
  8
0
  6
Continuous
 62
     7
370
    25
100
AcDbLine
 10
66.79462107386279
 20
-104.1435323186372
 30
0.0
 11
66.78978884986277
 21
-103.1890237570372
 31
0.0
  0
LINE
  5
17E
330
24
100
AcDbEntity
  8
0
  6
Continuous
 62
     7
370
    25
100
AcDbLine
 10
-25.95909788203723
 20
-127.2708614973372
 30
0.0
 11
66.79462107386279
 21
-104.1435323186372
 31
0.0
  0
LINE
  5
17F
330
24
100
AcDbEntity
  8
0
  6
Continuous
 62
     7
370
    25
100
AcDbLine
 10
-83.4107959714372
 20
-106.8893892134372
 30
0.0
 11
-83.40596374743721
 21
-107.8438977750372
 31
0.0
  0
LINE
  5
180
330
24
100
AcDbEntity
  8
0
  6
Continuous
 62
     7
370
    25
100
AcDbLine
 10
-83.40596374743721
 20
-107.8438977750372
 30
0.0
 11
-29.47759550473721
 21
-127.1838584815372
 31
0.0
  0
ARC
  5
181
330
24
100
AcDbEntity
  8
0
  6
Continuous
 62
     7
370
    25
100
AcDbCircle
 10
-22.16514291803724
 20
-129.8078349263371
 30
0.0
 40
6.647065843295819
100
AcDbArc
 50
73.49831840359982
 51
107.0817993384001
  0
LINE
  5
182
330
24
100
AcDbEntity
  8
0
  6
Continuous
 62
     7
370
    25
100
AcDbLine
 10
-22.16688176403723
 20
-95.95814787423716
 30
0.0
 11
-22.16204954003722
 21
-96.91265643583716
 31
0.0
  0
LINE
  5
183
330
24
100
AcDbEntity
  8
0
  6
Continuous
 62
     7
370
    25
100
AcDbLine
 10
17.47671595936277
 20
-111.1280349498372
 30
0.0
 11
-22.16204954003722
 21
-96.91265643583716
 31
0.0
  0
POLYLINE
  5
184
330
24
100
AcDbEntity
  8
0
  6
Continuous
 62
     7
370
    25
100
AcDb2dPolyline
 66
     1
 10
0.0
 20
0.0
 30
0.0
 75
     5
  0
VERTEX
  5
185
330
184
100
AcDbEntity
  8
0
  6
Continuous
 62
     7
370
    25
100
AcDbVertex
100
AcDb2dVertex
 10
-83.40596374743721
 20
-107.8438977750372
 30
0.0
  0
VERTEX
  5
186
330
184
100
AcDbEntity
  8
0
  6
Continuous
 62
     7
370
    25
100
AcDbVertex
100
AcDb2dVertex
 10
-83.67827213163723
 20
-107.7236680110372
 30
0.0
  0
VERTEX
  5
187
330
184
100
AcDbEntity
  8
0
  6
Continuous
 62
     7
370
    25
100
AcDbVertex
100
AcDb2dVertex
 10
-83.8658559947372
 20
-107.5895425618372
 30
0.0
  0
VERTEX
  5
188
330
184
100
AcDbEntity
  8
0
  6
Continuous
 62
     7
370
    25
100
AcDbVertex
100
AcDb2dVertex
 10
-83.9615065942372
 20
-107.4466757931372
 30
0.0
  0
VERTEX
  5
189
330
184
100
AcDbEntity
  8
0
  6
Continuous
 62
     7
370
    25
100
AcDbVertex
100
AcDb2dVertex
 10
-83.9735625666372
 20
-107.3747345688372
 30
0.0
  0
SEQEND
  5
18A
330
184
100
AcDbEntity
  8
0
  6
Continuous
 62
     7
370
    25
  0
ARC
  5
18B
330
24
100
AcDbEntity
  8
0
  6
Continuous
 62
     7
370
    25
100
AcDbCircle
 10
-71.3351257275372
 20
-112.1743413410372
 30
0.0
 40
6.647065843295589
100
AcDbArc
 50
73.4983184036
 51
107.0817993384002
  0
ARC
  5
18C
330
24
100
AcDbEntity
  8
0
  6
Continuous
 62
     7
370
    25
100
AcDbCircle
 10
55.12962287856278
 20
-110.5350606107372
 30
0.0
 40
6.647065843296265
100
AcDbArc
 50
73.4983184036002
 51
107.0817993384
  0
POLYLINE
  5
18D
330
24
100
AcDbEntity
  8
0
  6
Continuous
 62
     7
370
    25
100
AcDb2dPolyline
 66
     1
 10
0.0
 20
0.0
 30
0.0
 75
     5
  0
VERTEX
  5
18E
330
18D
100
AcDbEntity
  8
0
  6
Continuous
 62
     7
370
    25
100
AcDbVertex
100
AcDb2dVertex
 10
67.7084605602628
 20
-103.5620537931372
 30
0.0
  0
VERTEX
  5
18F
330
18D
100
AcDbEntity
  8
0
  6
Continuous
 62
     7
370
    25
100
AcDbVertex
100
AcDb2dVertex
 10
67.69644612466278
 20
-103.6362303673372
 30
0.0
  0
VERTEX
  5
190
330
18D
100
AcDbEntity
  8
0
  6
Continuous
 62
     7
370
    25
100
AcDbVertex
100
AcDb2dVertex
 10
67.60087700266278
 20
-103.7799839705372
 30
0.0
  0
VERTEX
  5
191
330
18D
100
AcDbEntity
  8
0
  6
Continuous
 62
     7
370
    25
100
AcDbVertex
100
AcDb2dVertex
 10
67.41336988956279
 20
-103.9158490079372
 30
0.0
  0
VERTEX
  5
192
330
18D
100
AcDbEntity
  8
0
  6
Continuous
 62
     7
370
    25
100
AcDbVertex
100
AcDb2dVertex
 10
67.14113057856277
 20
-104.0386042625372
 30
0.0
  0
VERTEX
  5
193
330
18D
100
AcDbEntity
  8
0
  6
Continuous
 62
     7
370
    25
100
AcDbVertex
100
AcDb2dVertex
 10
66.79462107386279
 20
-104.1435323186372
 30
0.0
  0
SEQEND
  5
194
330
18D
100
AcDbEntity
  8
0
  6
Continuous
 62
     7
370
    25
  0
LINE
  5
195
330
24
100
AcDbEntity
  8
0
  6
Continuous
 62
     7
370
    25
100
AcDbLine
 10
-43.07670169093721
 20
-100.2075190794372
 30
0.0
 11
-43.07186946693723
 21
-101.1620276410372
 31
0.0
  0
LINE
  5
196
330
24
100
AcDbEntity
  8
0
  6
Continuous
 62
     7
370
    25
100
AcDbLine
 10
-43.07186946693723
 20
-101.1620276410372
 30
0.0
 11
-43.40849591433719
 21
-101.2633416400372
 31
0.0
  0
LINE
  5
197
330
24
100
AcDbEntity
  8
0
  6
Continuous
 62
     7
370
    25
100
AcDbLine
 10
-25.68054716263724
 20
-96.82565342003717
 30
0.0
 11
-25.68537938663723
 21
-95.87114485843716
 31
0.0
  0
LINE
  5
198
330
24
100
AcDbEntity
  8
0
  6
Continuous
 62
     7
370
    25
100
AcDbLine
 10
-25.68054716263724
 20
-96.82565342003717
 30
0.0
 11
-43.07186946693723
 21
-101.1620276410372
 31
0.0
  0
ARC
  5
199
330
24
100
AcDbEntity
  8
0
  6
Continuous
 62
     7
370
    25
100
AcDbCircle
 10
-24.08820342813722
 20
-103.6189797509372
 30
0.0
 40
6.977452343673987
100
AcDbArc
 50
73.97516226489991
 51
103.1918729142
  0
POLYLINE
  5
19A
330
24
100
AcDbEntity
  8
0
  6
Continuous
 62
     8
370
    25
100
AcDb2dPolyline
 66
     1
 10
0.0
 20
0.0
 30
0.0
 75
     5
  0
VERTEX
  5
19B
330
19A
100
AcDbEntity
  8
0
  6
Continuous
 62
     8
370
    25
100
AcDbVertex
100
AcDb2dVertex
 10
-0.62244826773723
 20
127.2256167539629
 30
0.0
  0
VERTEX
  5
19C
330
19A
100
AcDbEntity
  8
0
  6
Continuous
 62
     8
370
    25
100
AcDbVertex
100
AcDb2dVertex
 10
-0.8129873837372266
 20
127.7464149429629
 30
0.0
  0
VERTEX
  5
19D
330
19A
100
AcDbEntity
  8
0
  6
Continuous
 62
     8
370
    25
100
AcDbVertex
100
AcDb2dVertex
 10
-1.090567847937212
 20
128.1821222119628
 30
0.0
  0
VERTEX
  5
19E
330
19A
100
AcDbEntity
  8
0
  6
Continuous
 62
     8
370
    25
100
AcDbVertex
100
AcDb2dVertex
 10
-1.42510951003722
 20
128.4855229174628
 30
0.0
  0
VERTEX
  5
19F
330
19A
100
AcDbEntity
  8
0
  6
Continuous
 62
     8
370
    25
100
AcDbVertex
100
AcDb2dVertex
 10
-1.780359590037211
 20
128.6237388853629
 30
0.0
  0
VERTEX
  5
1A0
330
19A
100
AcDbEntity
  8
0
  6
Continuous
 62
     8
370
    25
100
AcDbVertex
100
AcDb2dVertex
 10
-2.093926909737224
 20
128.5912195859628
 30
0.0
  0
SEQEND
  5
1A1
330
19A
100
AcDbEntity
  8
0
  6
Continuous
 62
     8
370
    25
  0
POLYLINE
  5
1A2
330
24
100
AcDbEntity
  8
0
  6
Continuous
 62
     8
370
    25
100
AcDb2dPolyline
 66
     1
 10
0.0
 20
0.0
 30
0.0
 75
     5
  0
VERTEX
  5
1A3
330
1A2
100
AcDbEntity
  8
0
  6
Continuous
 62
     8
370
    25
100
AcDbVertex
100
AcDb2dVertex
 10
-1.265021956737218
 20
125.2987789628628
 30
0.0
  0
VERTEX
  5
1A4
330
1A2
100
AcDbEntity
  8
0
  6
Continuous
 62
     8
370
    25
100
AcDbVertex
100
AcDb2dVertex
 10
-0.9641482687372225
 20
125.4284723572629
 30
0.0
  0
VERTEX
  5
1A5
330
1A2
100
AcDbEntity
  8
0
  6
Continuous
 62
     8
370
    25
100
AcDbVertex
100
AcDb2dVertex
 10
-0.7202358047372179
 20
125.7261157660628
 30
0.0
  0
VERTEX
  5
1A6
330
1A2
100
AcDbEntity
  8
0
  6
Continuous
 62
     8
370
    25
100
AcDbVertex
100
AcDb2dVertex
 10
-0.5734157618372144
 20
126.1575990186628
 30
0.0
  0
VERTEX
  5
1A7
330
1A2
100
AcDbEntity
  8
0
  6
Continuous
 62
     8
370
    25
100
AcDbVertex
100
AcDb2dVertex
 10
-0.5395983698372113
 20
126.6761642095628
 30
0.0
  0
VERTEX
  5
1A8
330
1A2
100
AcDbEntity
  8
0
  6
Continuous
 62
     8
370
    25
100
AcDbVertex
100
AcDb2dVertex
 10
-0.62244826773723
 20
127.2256167539629
 30
0.0
  0
SEQEND
  5
1A9
330
1A2
100
AcDbEntity
  8
0
  6
Continuous
 62
     8
370
    25
  0
LINE
  5
1AA
330
24
100
AcDbEntity
  8
0
  6
Continuous
 62
     8
370
    25
100
AcDbLine
 10
-8.30919214693721
 20
138.3885623417628
 30
0.0
 11
-8.646821300637232
 21
138.3043774631628
 31
0.0
  0
LINE
  5
1AB
330
24
100
AcDbEntity
  8
0
  6
Continuous
 62
     8
370
    25
100
AcDbLine
 10
-8.271400079837225
 20
138.5221862203629
 30
0.0
 11
-8.542949100537232
 21
138.6195699825628
 31
0.0
  0
LINE
  5
1AC
330
24
100
AcDbEntity
  8
0
  6
Continuous
 62
     8
370
    25
100
AcDbLine
 10
17.49110945226279
 20
-111.1227564014372
 30
0.0
 11
17.48633017916277
 21
-110.1787072172372
 31
0.0
  0
ENDBLK
  5
1AD
330
24
100
AcDbEntity
  8
一般
100
AcDbBlockEnd
  0
ENDSEC
  0
SECTION
  2
ENTITIES
  0
INSERT
  5
1AE
330
A
100
AcDbEntity
  8
一般
 62
     7
100
AcDbBlockReference
  2
*U0
 10
118.8500277669
 20
152.0038619521
 30
0.0
 41
0.5
 42
0.5
 43
0.5
  0
MTEXT
  5
1AF
330
A
100
AcDbEntity
  8
0
 62
     7
100
AcDbMText
 10
164.42501388345
 20
78.09194833716111
 30
0.0
 40
3.031684027777777
 41
0.0
 46
3.083222656249999
 71
     1
 72
     1
  1
{GHEC-086-NA}
  7
Arial
 73
     1
 44
0.9673603504928806
  0
ENDSEC
  0
SECTION
  2
OBJECTS
  0
DICTIONARY
  5
19
330
0
100
AcDbDictionary
281
     1
  3
ACAD_DETAILVIEWSTYLE
350
1F9
  3
ACAD_GROUP
350
1A
  3
ACAD_LAYOUT
350
1E
  3
ACAD_MATERIAL
350
1EB
  3
ACAD_MLEADERSTYLE
350
1F1
  3
ACAD_MLINESTYLE
350
1B
  3
ACAD_PLOTSETTINGS
350
22
  3
ACAD_PLOTSTYLENAME
350
1F
  3
ACAD_SCALELIST
350
1B0
  3
ACAD_SECTIONVIEWSTYLE
350
1FA
  3
ACAD_TABLESTYLE
350
1EF
  3
ACAD_VISUALSTYLE
350
1D2
  3
ACAD_WIPEOUT_VARS
350
23
  3
ACDB_RECOMPOSE_DATA
350
205
  3
AcDbVariableDictionary
350
1F4
  3
APPDATA
350
1F3
  0
SUN
  5
1FB
330
15
100
AcDbSun
 90
        1
290
     0
 63
     7
421
 16777215
 40
1.0
291
     1
 91
  2455826
 92
 54000000
292
     0
 70
     2
 71
   256
280
     1
  0
DICTIONARY
  5
1F9
102
{ACAD_REACTORS
330
19
102
}
330
19
100
AcDbDictionary
281
     1
  0
DICTIONARY
  5
1A
102
{ACAD_REACTORS
330
19
102
}
330
19
100
AcDbDictionary
281
     1
  0
DICTIONARY
  5
1E
102
{ACAD_REACTORS
330
19
102
}
330
19
100
AcDbDictionary
281
     1
  3
Layout1
350
21
  3
Model
350
20
  0
DICTIONARY
  5
1EB
102
{ACAD_REACTORS
330
19
102
}
330
19
100
AcDbDictionary
281
     1
  3
ByBlock
350
1ED
  3
ByLayer
350
1EC
  3
Global
350
1EE
  0
DICTIONARY
  5
1F1
102
{ACAD_REACTORS
330
19
102
}
330
19
100
AcDbDictionary
281
     1
  3
Standard
350
1F2
  0
DICTIONARY
  5
1B
102
{ACAD_REACTORS
330
19
102
}
330
19
100
AcDbDictionary
281
     1
  3
Standard
350
1C
  0
DICTIONARY
  5
22
102
{ACAD_REACTORS
330
19
102
}
330
19
100
AcDbDictionary
281
     1
  0
ACDBDICTIONARYWDFLT
  5
1F
102
{ACAD_REACTORS
330
19
102
}
330
19
100
AcDbDictionary
281
     1
  3
Normal
350
1D
100
AcDbDictionaryWithDefault
340
1D
  0
DICTIONARY
  5
1B0
102
{ACAD_REACTORS
330
19
102
}
330
19
100
AcDbDictionary
281
     1
  3
A0
350
1B1
  3
A1
350
1B2
  3
A2
350
1B3
  3
A3
350
1B4
  3
A4
350
1B5
  3
A5
350
1B6
  3
A6
350
1B7
  3
A7
350
1B8
  3
A8
350
1B9
  3
A9
350
1BA
  3
B0
350
1BB
  3
B1
350
1BC
  3
B2
350
1BD
  3
B3
350
1BE
  3
B4
350
1BF
  3
B5
350
1C0
  3
B6
350
1C1
  3
B7
350
1C2
  3
B8
350
1C3
  3
B9
350
1C4
  3
C0
350
1C5
  3
C1
350
1C6
  3
C2
350
1C7
  3
C3
350
1C8
  3
C4
350
1C9
  3
C5
350
1CA
  3
C6
350
1CB
  3
C7
350
1CC
  3
C8
350
1CD
  3
C9
350
1CE
  3
D0
350
1CF
  3
D1
350
1D0
  3
D2
350
1D1
  0
DICTIONARY
  5
1FA
102
{ACAD_REACTORS
330
19
102
}
330
19
100
AcDbDictionary
281
     1
  0
DICTIONARY
  5
1EF
102
{ACAD_REACTORS
330
19
102
}
330
19
100
AcDbDictionary
281
     1
  3
Standard
350
1F0
  0
DICTIONARY
  5
1D2
102
{ACAD_REACTORS
330
19
102
}
330
19
100
AcDbDictionary
281
     1
  3
2dWireframe
350
1D7
  3
Basic
350
1DA
  3
Brighten
350
1DE
  3
ColorChange
350
1E2
  3
Conceptual
350
1DC
  3
Dim
350
1DD
  3
EdgeColorOff
350
1E5
  3
Facepattern
350
1E1
  3
Flat
350
1D3
  3
FlatWithEdges
350
1D4
  3
Gouraud
350
1D5
  3
GouraudWithEdges
350
1D6
  3
Hidden
350
1D9
  3
JitterOff
350
1E3
  3
Linepattern
350
1E0
  3
OverhangOff
350
1E4
  3
Realistic
350
1DB
  3
Shaded
350
1EA
  3
Shaded with edges
350
1E9
  3
Shades of Gray
350
1E6
  3
Sketchy
350
1E7
  3
Thicken
350
1DF
  3
Wireframe
350
1D8
  3
X-Ray
350
1E8
  0
WIPEOUTVARIABLES
  5
23
330
19
100
AcDbWipeoutVariables
 70
     1
  0
XRECORD
  5
205
102
{ACAD_REACTORS
330
19
102
}
330
19
100
AcDbXrecord
280
     1
 90
        1
330
1F0
  0
DICTIONARY
  5
1F4
102
{ACAD_REACTORS
330
19
102
}
330
19
100
AcDbDictionary
281
     1
  3
CANNOSCALE
350
1F5
  3
CMLEADERSTYLE
350
1F7
  3
CTABLESTYLE
350
1F6
  3
MSLTSCALE
350
1F8
  0
DICTIONARY
  5
1F3
102
{ACAD_REACTORS
330
19
102
}
330
19
100
AcDbDictionary
281
     1
  0
LAYOUT
  5
21
102
{ACAD_REACTORS
330
1E
102
}
330
1E
100
AcDbPlotSettings
  1

  2

  4

  6

 40
0.0
 41
0.0
 42
0.0
 43
0.0
 44
0.0
 45
0.0
 46
0.0
 47
0.0
 48
0.0
 49
0.0
140
0.0
141
0.0
142
1.0
143
1.0
 70
     0
 72
     0
 73
     0
 74
     0
  7

 75
     0
 76
     0
 77
     2
 78
   300
147
1.0
148
0.0
149
0.0
100
AcDbLayout
  1
Layout1
 70
     0
 71
     0
 10
0.0
 20
0.0
 11
0.0
 21
0.0
 12
0.0
 22
0.0
 32
0.0
 14
0.0
 24
0.0
 34
0.0
 15
0.0
 25
0.0
 35
0.0
146
0.0
 13
0.0
 23
0.0
 33
0.0
 16
0.0
 26
0.0
 36
0.0
 17
0.0
 27
0.0
 37
0.0
 76
     0
330
B
  0
LAYOUT
  5
20
102
{ACAD_REACTORS
330
1E
102
}
330
1E
100
AcDbPlotSettings
  1

  2

  4

  6

 40
0.0
 41
0.0
 42
0.0
 43
0.0
 44
0.0
 45
0.0
 46
0.0
 47
0.0
 48
0.0
 49
0.0
140
0.0
141
0.0
142
1.0
143
1.0
 70
  1024
 72
     0
 73
     0
 74
     0
  7

 75
     0
 76
     0
 77
     2
 78
   300
147
1.0
148
0.0
149
0.0
100
AcDbLayout
  1
Model
 70
     0
 71
     1
 10
0.0
 20
0.0
 11
0.0
 21
0.0
 12
0.0
 22
0.0
 32
0.0
 14
76.86083037158139
 24
74.9571870524389
 34
0.0
 15
192.1879919582655
 25
223.6344130959814
 35
0.0
146
0.0
 13
0.0
 23
0.0
 33
0.0
 16
0.0
 26
0.0
 36
0.0
 17
0.0
 27
0.0
 37
0.0
 76
     0
330
A
331
15
  0
MATERIAL
  5
1ED
102
{ACAD_REACTORS
330
1EB
102
}
330
1EB
100
AcDbMaterial
  1
ByBlock
 72
     1
 94
      127
  0
MATERIAL
  5
1EC
102
{ACAD_REACTORS
330
1EB
102
}
330
1EB
100
AcDbMaterial
  1
ByLayer
 72
     1
 94
      127
  0
MATERIAL
  5
1EE
102
{ACAD_REACTORS
330
1EB
102
}
330
1EB
100
AcDbMaterial
  1
Global
 72
     1
 94
      127
  0
MLEADERSTYLE
  5
1F2
102
{ACAD_REACTORS
330
1F1
102
}
330
1F1
100
AcDbMLeaderStyle
179
     2
170
     2
171
     1
172
     0
 90
        2
 40
0.0
 41
0.0
173
     1
 91
-1056964608
340
11
 92
       -2
290
     1
 42
2.0
291
     1
 43
8.0
  3
Standard
341
0
 44
4.0
300

342
17
174
     1
178
     1
175
     1
176
     0
 93
-1056964608
 45
4.0
292
     0
297
     0
 46
4.0
343
0
 94
-1056964608
 47
1.0
 49
1.0
140
1.0
293
     1
141
0.0
294
     1
177
     0
142
1.0
295
     0
296
     0
143
3.75
271
     0
272
     9
273
     9
298
     0
  0
MLINESTYLE
  5
1C
102
{ACAD_REACTORS
330
1B
102
}
330
1B
100
AcDbMlineStyle
  2
Standard
 70
     0
  3

 62
     0
 51
90.0
 52
90.0
 71
     2
 49
0.5
 62
   256
  6
BYLAYER
 49
-0.5
 62
   256
  6
BYLAYER
  0
ACDBPLACEHOLDER
  5
1D
102
{ACAD_REACTORS
330
1F
102
}
330
1F
  0
SCALE
  5
1B1
102
{ACAD_REACTORS
330
1B0
102
}
330
1B0
100
AcDbScale
 70
     0
300
1:1
140
1.0
141
1.0
290
     1
  0
SCALE
  5
1B2
102
{ACAD_REACTORS
330
1B0
102
}
330
1B0
100
AcDbScale
 70
     0
300
1:2
140
1.0
141
2.0
290
     0
  0
SCALE
  5
1B3
102
{ACAD_REACTORS
330
1B0
102
}
330
1B0
100
AcDbScale
 70
     0
300
1:4
140
1.0
141
4.0
290
     0
  0
SCALE
  5
1B4
102
{ACAD_REACTORS
330
1B0
102
}
330
1B0
100
AcDbScale
 70
     0
300
1:5
140
1.0
141
5.0
290
     0
  0
SCALE
  5
1B5
102
{ACAD_REACTORS
330
1B0
102
}
330
1B0
100
AcDbScale
 70
     0
300
1:8
140
1.0
141
8.0
290
     0
  0
SCALE
  5
1B6
102
{ACAD_REACTORS
330
1B0
102
}
330
1B0
100
AcDbScale
 70
     0
300
1:10
140
1.0
141
10.0
290
     0
  0
SCALE
  5
1B7
102
{ACAD_REACTORS
330
1B0
102
}
330
1B0
100
AcDbScale
 70
     0
300
1:16
140
1.0
141
16.0
290
     0
  0
SCALE
  5
1B8
102
{ACAD_REACTORS
330
1B0
102
}
330
1B0
100
AcDbScale
 70
     0
300
1:20
140
1.0
141
20.0
290
     0
  0
SCALE
  5
1B9
102
{ACAD_REACTORS
330
1B0
102
}
330
1B0
100
AcDbScale
 70
     0
300
1:30
140
1.0
141
30.0
290
     0
  0
SCALE
  5
1BA
102
{ACAD_REACTORS
330
1B0
102
}
330
1B0
100
AcDbScale
 70
     0
300
1:40
140
1.0
141
40.0
290
     0
  0
SCALE
  5
1BB
102
{ACAD_REACTORS
330
1B0
102
}
330
1B0
100
AcDbScale
 70
     0
300
1:50
140
1.0
141
50.0
290
     0
  0
SCALE
  5
1BC
102
{ACAD_REACTORS
330
1B0
102
}
330
1B0
100
AcDbScale
 70
     0
300
1:100
140
1.0
141
100.0
290
     0
  0
SCALE
  5
1BD
102
{ACAD_REACTORS
330
1B0
102
}
330
1B0
100
AcDbScale
 70
     0
300
2:1
140
2.0
141
1.0
290
     0
  0
SCALE
  5
1BE
102
{ACAD_REACTORS
330
1B0
102
}
330
1B0
100
AcDbScale
 70
     0
300
4:1
140
4.0
141
1.0
290
     0
  0
SCALE
  5
1BF
102
{ACAD_REACTORS
330
1B0
102
}
330
1B0
100
AcDbScale
 70
     0
300
8:1
140
8.0
141
1.0
290
     0
  0
SCALE
  5
1C0
102
{ACAD_REACTORS
330
1B0
102
}
330
1B0
100
AcDbScale
 70
     0
300
10:1
140
10.0
141
1.0
290
     0
  0
SCALE
  5
1C1
102
{ACAD_REACTORS
330
1B0
102
}
330
1B0
100
AcDbScale
 70
     0
300
100:1
140
100.0
141
1.0
290
     0
  0
SCALE
  5
1C2
102
{ACAD_REACTORS
330
1B0
102
}
330
1B0
100
AcDbScale
 70
     0
300
1/128" = 1'-0"
140
0.0078125
141
12.0
290
     0
  0
SCALE
  5
1C3
102
{ACAD_REACTORS
330
1B0
102
}
330
1B0
100
AcDbScale
 70
     0
300
1/64" = 1'-0"
140
0.015625
141
12.0
290
     0
  0
SCALE
  5
1C4
102
{ACAD_REACTORS
330
1B0
102
}
330
1B0
100
AcDbScale
 70
     0
300
1/32" = 1'-0"
140
0.03125
141
12.0
290
     0
  0
SCALE
  5
1C5
102
{ACAD_REACTORS
330
1B0
102
}
330
1B0
100
AcDbScale
 70
     0
300
1/16" = 1'-0"
140
0.0625
141
12.0
290
     0
  0
SCALE
  5
1C6
102
{ACAD_REACTORS
330
1B0
102
}
330
1B0
100
AcDbScale
 70
     0
300
3/32" = 1'-0"
140
0.09375
141
12.0
290
     0
  0
SCALE
  5
1C7
102
{ACAD_REACTORS
330
1B0
102
}
330
1B0
100
AcDbScale
 70
     0
300
1/8" = 1'-0"
140
0.125
141
12.0
290
     0
  0
SCALE
  5
1C8
102
{ACAD_REACTORS
330
1B0
102
}
330
1B0
100
AcDbScale
 70
     0
300
3/16" = 1'-0"
140
0.1875
141
12.0
290
     0
  0
SCALE
  5
1C9
102
{ACAD_REACTORS
330
1B0
102
}
330
1B0
100
AcDbScale
 70
     0
300
1/4" = 1'-0"
140
0.25
141
12.0
290
     0
  0
SCALE
  5
1CA
102
{ACAD_REACTORS
330
1B0
102
}
330
1B0
100
AcDbScale
 70
     0
300
3/8" = 1'-0"
140
0.375
141
12.0
290
     0
  0
SCALE
  5
1CB
102
{ACAD_REACTORS
330
1B0
102
}
330
1B0
100
AcDbScale
 70
     0
300
1/2" = 1'-0"
140
0.5
141
12.0
290
     0
  0
SCALE
  5
1CC
102
{ACAD_REACTORS
330
1B0
102
}
330
1B0
100
AcDbScale
 70
     0
300
3/4" = 1'-0"
140
0.75
141
12.0
290
     0
  0
SCALE
  5
1CD
102
{ACAD_REACTORS
330
1B0
102
}
330
1B0
100
AcDbScale
 70
     0
300
1" = 1'-0"
140
1.0
141
12.0
290
     0
  0
SCALE
  5
1CE
102
{ACAD_REACTORS
330
1B0
102
}
330
1B0
100
AcDbScale
 70
     0
300
1-1/2" = 1'-0"
140
1.5
141
12.0
290
     0
  0
SCALE
  5
1CF
102
{ACAD_REACTORS
330
1B0
102
}
330
1B0
100
AcDbScale
 70
     0
300
3" = 1'-0"
140
3.0
141
12.0
290
     0
  0
SCALE
  5
1D0
102
{ACAD_REACTORS
330
1B0
102
}
330
1B0
100
AcDbScale
 70
     0
300
6" = 1'-0"
140
6.0
141
12.0
290
     0
  0
SCALE
  5
1D1
102
{ACAD_REACTORS
330
1B0
102
}
330
1B0
100
AcDbScale
 70
     0
300
1'-0" = 1'-0"
140
12.0
141
12.0
290
     0
  0
TABLESTYLE
  5
1F0
102
{ACAD_REACTORS
330
1EF
102
}
102
{ACAD_XDICTIONARY
360
203
102
}
330
1EF
100
AcDbTableStyle
  3
Standard
 70
     0
 71
     0
 40
1.5
 41
1.5
280
     0
281
     0
  7
Standard
140
4.5
170
     2
 62
     0
 63
   257
283
     0
 90
        4
 91
        0
  1

274
    -2
284
     1
 64
     0
275
    -2
285
     1
 65
     0
276
    -2
286
     1
 66
     0
277
    -2
287
     1
 67
     0
278
    -2
288
     1
 68
     0
279
    -2
289
     1
 69
     0
  7
Standard
140
6.0
170
     5
 62
     0
 63
   257
283
     0
 90
        4
 91
        0
  1

274
    -2
284
     1
 64
     0
275
    -2
285
     1
 65
     0
276
    -2
286
     1
 66
     0
277
    -2
287
     1
 67
     0
278
    -2
288
     1
 68
     0
279
    -2
289
     1
 69
     0
  7
Standard
140
4.5
170
     5
 62
     0
 63
   257
283
     0
 90
        4
 91
        0
  1

274
    -2
284
     1
 64
     0
275
    -2
285
     1
 65
     0
276
    -2
286
     1
 66
     0
277
    -2
287
     1
 67
     0
278
    -2
288
     1
 68
     0
279
    -2
289
     1
 69
     0
  0
VISUALSTYLE
  5
1D7
102
{ACAD_REACTORS
330
1D2
102
}
330
1D2
100
AcDbVisualStyle
  2
2dWireframe
 70
     4
177
     3
291
     0
 70
    58
 90
        0
176
     1
 90
        2
176
     1
 90
        0
176
     1
 90
        0
176
     1
 40
0.6
176
     1
 40
30.0
176
     1
 62
     7
420
 16777215
176
     1
 90
        1
176
     1
 90
        4
176
     1
 62
     7
176
     1
 62
   257
176
     1
 90
        1
176
     1
 90
        1
176
     1
 40
1.0
176
     1
 90
        0
176
     1
 62
   257
176
     1
 40
1.0
176
     1
 90
        1
176
     1
 90
        6
176
     1
 90
        2
176
     1
 62
     7
176
     1
 90
        5
176
     1
 90
        0
176
     1
 90
        0
176
     1
290
     0
176
     1
 90
        1
176
     1
 40
0.0
176
     1
 90
        0
176
     1
290
     1
176
     1
290
     1
176
     1
290
     0
176
     1
290
     0
176
     1
290
     0
176
     1
290
     0
176
     1
290
     0
176
     1
290
     0
176
     1
290
     0
176
     1
 90
       50
176
     1
 40
0.0
176
     1
 40
1.0
176
     1
 90
        0
176
     1
 62
    18
420
        0
176
     1
 90
       50
176
     1
 90
        3
176
     1
 62
     5
420
      255
176
     1
290
     0
176
     1
 90
       50
176
     1
 90
       50
176
     1
 90
       50
176
     1
290
     0
176
     1
 90
       50
176
     1
 62
   256
176
     0
 40
1.0
176
     0
 90
        2
176
     1
  1
strokes_ogs.tif
176
     1
290
     0
176
     1
 40
1.0
176
     1
 40
1.0
176
     1
  0
VISUALSTYLE
  5
1DA
102
{ACAD_REACTORS
330
1D2
102
}
330
1D2
100
AcDbVisualStyle
  2
Basic
 70
     7
177
     3
291
     1
 70
    58
 90
        1
176
     1
 90
        0
176
     1
 90
        1
176
     1
 90
        0
176
     1
 40
0.6
176
     1
 40
30.0
176
     1
 62
     7
420
 16777215
176
     1
 90
        0
176
     1
 90
        4
176
     1
 62
     7
176
     1
 62
   257
176
     1
 90
        1
176
     1
 90
        1
176
     1
 40
1.0
176
     1
 90
        8
176
     1
 62
     7
176
     1
 40
1.0
176
     1
 90
        1
176
     1
 90
        6
176
     1
 90
        2
176
     1
 62
     7
176
     1
 90
        5
176
     1
 90
        0
176
     1
 90
        0
176
     1
290
     0
176
     1
 90
        1
176
     1
 40
0.0
176
     1
 90
        0
176
     1
290
     0
176
     1
290
     1
176
     1
290
     1
176
     1
290
     0
176
     1
290
     0
176
     1
290
     0
176
     1
290
     0
176
     1
290
     0
176
     1
290
     0
176
     1
 90
       50
176
     1
 40
0.0
176
     1
 40
1.0
176
     1
 90
        0
176
     1
 62
    18
420
        0
176
     1
 90
       50
176
     1
 90
        3
176
     1
 62
     5
420
      255
176
     1
290
     0
176
     1
 90
       50
176
     1
 90
       50
176
     1
 90
       50
176
     1
290
     0
176
     1
 90
       50
176
     1
 62
   256
176
     0
 40
1.0
176
     0
 90
        2
176
     1
  1
strokes_ogs.tif
176
     1
290
     0
176
     1
 40
1.0
176
     1
 40
1.0
176
     1
  0
VISUALSTYLE
  5
1DE
102
{ACAD_REACTORS
330
1D2
102
}
330
1D2
100
AcDbVisualStyle
  2
Brighten
 70
    12
177
     3
291
     1
 70
    58
 90
        2
176
     1
 90
        2
176
     1
 90
        0
176
     1
 90
        0
176
     1
 40
0.6
176
     1
 40
30.0
176
     1
 62
     7
420
 16777215
176
     1
 90
        1
176
     1
 90
        4
176
     1
 62
     7
176
     1
 62
   257
176
     1
 90
        1
176
     1
 90
        1
176
     1
 40
1.0
176
     1
 90
        8
176
     1
 62
     7
176
     1
 40
1.0
176
     1
 90
        1
176
     1
 90
        6
176
     1
 90
        2
176
     1
 62
     7
176
     1
 90
        5
176
     1
 90
        0
176
     1
 90
        0
176
     1
290
     0
176
     1
 90
        1
176
     1
 40
50.0
176
     1
 90
        0
176
     1
290
     0
176
     1
290
     1
176
     1
290
     1
176
     1
290
     0
176
     1
290
     0
176
     1
290
     0
176
     1
290
     0
176
     1
290
     0
176
     1
290
     0
176
     1
 90
       50
176
     1
 40
0.0
176
     1
 40
1.0
176
     1
 90
        0
176
     1
 62
    18
420
        0
176
     1
 90
       50
176
     1
 90
        3
176
     1
 62
     5
420
      255
176
     1
290
     0
176
     1
 90
       50
176
     1
 90
       50
176
     1
 90
       50
176
     1
290
     0
176
     1
 90
       50
176
     1
 62
   256
176
     0
 40
1.0
176
     0
 90
        2
176
     1
  1
strokes_ogs.tif
176
     1
290
     0
176
     1
 40
1.0
176
     1
 40
1.0
176
     1
  0
VISUALSTYLE
  5
1E2
102
{ACAD_REACTORS
330
1D2
102
}
330
1D2
100
AcDbVisualStyle
  2
ColorChange
 70
    16
177
     3
291
     1
 70
    58
 90
        2
176
     1
 90
        2
176
     1
 90
        3
176
     1
 90
        0
176
     1
 40
0.6
176
     1
 40
30.0
176
     1
 62
     8
420
  8421504
176
     1
 90
        1
176
     1
 90
        4
176
     1
 62
     7
176
     1
 62
   257
176
     1
 90
        1
176
     1
 90
        1
176
     1
 40
1.0
176
     1
 90
        8
176
     1
 62
     8
420
  8421504
176
     1
 40
1.0
176
     1
 90
        1
176
     1
 90
        6
176
     1
 90
        2
176
     1
 62
     7
176
     1
 90
        5
176
     1
 90
        0
176
     1
 90
        0
176
     1
290
     0
176
     1
 90
        1
176
     1
 40
0.0
176
     1
 90
        0
176
     1
290
     0
176
     1
290
     1
176
     1
290
     1
176
     1
290
     0
176
     1
290
     0
176
     1
290
     0
176
     1
290
     0
176
     1
290
     0
176
     1
290
     0
176
     1
 90
       50
176
     1
 40
0.0
176
     1
 40
1.0
176
     1
 90
        0
176
     1
 62
    18
420
        0
176
     1
 90
       50
176
     1
 90
        3
176
     1
 62
     5
420
      255
176
     1
290
     0
176
     1
 90
       50
176
     1
 90
       50
176
     1
 90
       50
176
     1
290
     0
176
     1
 90
       50
176
     1
 62
   256
176
     0
 40
1.0
176
     0
 90
        2
176
     1
  1
strokes_ogs.tif
176
     1
290
     0
176
     1
 40
1.0
176
     1
 40
1.0
176
     1
  0
VISUALSTYLE
  5
1DC
102
{ACAD_REACTORS
330
1D2
102
}
330
1D2
100
AcDbVisualStyle
  2
Conceptual
 70
     9
177
     3
291
     0
 70
    58
 90
        3
176
     1
 90
        2
176
     1
 90
        0
176
     1
 90
        0
176
     1
 40
0.6
176
     1
 40
30.0
176
     1
 62
     7
420
 16777215
176
     1
 90
        2
176
     1
 90
        2
176
     1
 62
     7
176
     1
 62
   257
176
     1
 90
        1
176
     1
 90
        1
176
     1
 40
179.0
176
     1
 90
        8
176
     1
 62
     7
176
     1
 40
1.0
176
     1
 90
        1
176
     1
 90
        6
176
     1
 90
        2
176
     1
 62
     7
176
     1
 90
        3
176
     1
 90
        0
176
     1
 90
        0
176
     1
290
     0
176
     1
 90
        1
176
     1
 40
0.0
176
     1
 90
        0
176
     1
290
     0
176
     1
290
     1
176
     1
290
     1
176
     1
290
     0
176
     1
290
     0
176
     1
290
     0
176
     1
290
     0
176
     1
290
     0
176
     1
290
     0
176
     1
 90
       50
176
     1
 40
0.0
176
     1
 40
1.0
176
     1
 90
        0
176
     1
 62
    18
420
        0
176
     1
 90
       50
176
     1
 90
        3
176
     1
 62
     5
420
      255
176
     1
290
     0
176
     1
 90
       50
176
     1
 90
       50
176
     1
 90
       50
176
     1
290
     0
176
     1
 90
       50
176
     1
 62
   256
176
     0
 40
1.0
176
     0
 90
        2
176
     1
  1
strokes_ogs.tif
176
     1
290
     0
176
     1
 40
1.0
176
     1
 40
1.0
176
     1
  0
VISUALSTYLE
  5
1DD
102
{ACAD_REACTORS
330
1D2
102
}
330
1D2
100
AcDbVisualStyle
  2
Dim
 70
    11
177
     3
291
     1
 70
    58
 90
        2
176
     1
 90
        2
176
     1
 90
        0
176
     1
 90
        0
176
     1
 40
0.6
176
     1
 40
30.0
176
     1
 62
     7
420
 16777215
176
     1
 90
        1
176
     1
 90
        4
176
     1
 62
     7
176
     1
 62
   257
176
     1
 90
        1
176
     1
 90
        1
176
     1
 40
1.0
176
     1
 90
        8
176
     1
 62
     7
176
     1
 40
1.0
176
     1
 90
        1
176
     1
 90
        6
176
     1
 90
        2
176
     1
 62
     7
176
     1
 90
        5
176
     1
 90
        0
176
     1
 90
        0
176
     1
290
     0
176
     1
 90
        1
176
     1
 40
-50.0
176
     1
 90
        0
176
     1
290
     0
176
     1
290
     1
176
     1
290
     1
176
     1
290
     0
176
     1
290
     0
176
     1
290
     0
176
     1
290
     0
176
     1
290
     0
176
     1
290
     0
176
     1
 90
       50
176
     1
 40
0.0
176
     1
 40
1.0
176
     1
 90
        0
176
     1
 62
    18
420
        0
176
     1
 90
       50
176
     1
 90
        3
176
     1
 62
     5
420
      255
176
     1
290
     0
176
     1
 90
       50
176
     1
 90
       50
176
     1
 90
       50
176
     1
290
     0
176
     1
 90
       50
176
     1
 62
   256
176
     0
 40
1.0
176
     0
 90
        2
176
     1
  1
strokes_ogs.tif
176
     1
290
     0
176
     1
 40
1.0
176
     1
 40
1.0
176
     1
  0
VISUALSTYLE
  5
1E5
102
{ACAD_REACTORS
330
1D2
102
}
330
1D2
100
AcDbVisualStyle
  2
EdgeColorOff
 70
    22
177
     3
291
     1
 70
    58
 90
        2
176
     0
 90
        2
176
     0
 90
        0
176
     0
 90
        0
176
     0
 40
0.6
176
     0
 40
30.0
176
     0
 62
     7
420
 16777215
176
     0
 90
        1
176
     0
 90
        4
176
     0
 62
     7
176
     0
 62
   257
176
     0
 90
        1
176
     0
 90
        1
176
     0
 40
1.0
176
     0
 90
        8
176
     2
 62
     7
176
     0
 40
1.0
176
     0
 90
        1
176
     0
 90
        6
176
     0
 90
        2
176
     0
 62
     7
176
     0
 90
        5
176
     0
 90
        0
176
     0
 90
        0
176
     0
290
     0
176
     0
 90
        1
176
     0
 40
0.0
176
     0
 90
        0
176
     0
290
     0
176
     0
290
     1
176
     0
290
     1
176
     0
290
     0
176
     0
290
     0
176
     0
290
     0
176
     0
290
     0
176
     0
290
     0
176
     0
290
     0
176
     0
 90
       50
176
     0
 40
0.0
176
     0
 40
1.0
176
     0
 90
        0
176
     0
 62
    18
420
        0
176
     0
 90
       50
176
     0
 90
        3
176
     0
 62
     5
420
      255
176
     0
290
     0
176
     0
 90
       50
176
     0
 90
       50
176
     0
 90
       50
176
     0
290
     0
176
     0
 90
       50
176
     0
 62
   256
176
     0
 40
1.0
176
     0
 90
        2
176
     0
  1
strokes_ogs.tif
176
     0
290
     0
176
     0
 40
1.0
176
     0
 40
1.0
176
     0
  0
VISUALSTYLE
  5
1E1
102
{ACAD_REACTORS
330
1D2
102
}
330
1D2
100
AcDbVisualStyle
  2
Facepattern
 70
    15
177
     3
291
     1
 70
    58
 90
        2
176
     1
 90
        2
176
     1
 90
        0
176
     1
 90
        0
176
     1
 40
0.6
176
     1
 40
30.0
176
     1
 62
     7
420
 16777215
176
     1
 90
        1
176
     1
 90
        4
176
     1
 62
     7
176
     1
 62
   257
176
     1
 90
        1
176
     1
 90
        1
176
     1
 40
1.0
176
     1
 90
        8
176
     1
 62
     7
176
     1
 40
1.0
176
     1
 90
        1
176
     1
 90
        6
176
     1
 90
        2
176
     1
 62
     7
176
     1
 90
        5
176
     1
 90
        0
176
     1
 90
        0
176
     1
290
     0
176
     1
 90
        1
176
     1
 40
0.0
176
     1
 90
        0
176
     1
290
     0
176
     1
290
     1
176
     1
290
     1
176
     1
290
     0
176
     1
290
     0
176
     1
290
     0
176
     1
290
     0
176
     1
290
     0
176
     1
290
     0
176
     1
 90
       50
176
     1
 40
0.0
176
     1
 40
1.0
176
     1
 90
        0
176
     1
 62
    18
420
        0
176
     1
 90
       50
176
     1
 90
        3
176
     1
 62
     5
420
      255
176
     1
290
     0
176
     1
 90
       50
176
     1
 90
       50
176
     1
 90
       50
176
     1
290
     0
176
     1
 90
       50
176
     1
 62
   256
176
     0
 40
1.0
176
     0
 90
        2
176
     1
  1
strokes_ogs.tif
176
     1
290
     0
176
     1
 40
1.0
176
     1
 40
1.0
176
     1
  0
VISUALSTYLE
  5
1D3
102
{ACAD_REACTORS
330
1D2
102
}
330
1D2
100
AcDbVisualStyle
  2
Flat
 70
     0
177
     3
291
     1
 70
    58
 90
        2
176
     1
 90
        1
176
     1
 90
        1
176
     1
 90
        2
176
     1
 40
0.6
176
     1
 40
30.0
176
     1
 62
     7
420
 16777215
176
     1
 90
        0
176
     1
 90
        0
176
     1
 62
     7
176
     1
 62
   257
176
     1
 90
        1
176
     1
 90
        1
176
     1
 40
1.0
176
     1
 90
        8
176
     1
 62
     7
176
     1
 40
1.0
176
     1
 90
        1
176
     1
 90
        6
176
     1
 90
        2
176
     1
 62
     7
176
     1
 90
        5
176
     1
 90
        0
176
     1
 90
        0
176
     1
290
     0
176
     1
 90
       13
176
     1
 40
0.0
176
     1
 90
        0
176
     1
290
     0
176
     1
290
     1
176
     1
290
     1
176
     1
290
     0
176
     1
290
     0
176
     1
290
     0
176
     1
290
     0
176
     1
290
     0
176
     1
290
     0
176
     1
 90
       50
176
     1
 40
0.0
176
     1
 40
1.0
176
     1
 90
        0
176
     1
 62
    18
420
        0
176
     1
 90
       50
176
     1
 90
        3
176
     1
 62
     5
420
      255
176
     1
290
     0
176
     1
 90
       50
176
     1
 90
       50
176
     1
 90
       50
176
     1
290
     0
176
     1
 90
       50
176
     1
 62
   256
176
     0
 40
1.0
176
     0
 90
        2
176
     1
  1
strokes_ogs.tif
176
     1
290
     0
176
     1
 40
1.0
176
     1
 40
1.0
176
     1
  0
VISUALSTYLE
  5
1D4
102
{ACAD_REACTORS
330
1D2
102
}
330
1D2
100
AcDbVisualStyle
  2
FlatWithEdges
 70
     1
177
     3
291
     1
 70
    58
 90
        2
176
     1
 90
        1
176
     1
 90
        1
176
     1
 90
        2
176
     1
 40
0.6
176
     1
 40
30.0
176
     1
 62
     7
420
 16777215
176
     1
 90
        1
176
     1
 90
        0
176
     1
 62
     7
176
     1
 62
   257
176
     1
 90
        1
176
     1
 90
        1
176
     1
 40
1.0
176
     1
 90
        0
176
     1
 62
   257
176
     1
 40
1.0
176
     1
 90
        1
176
     1
 90
        6
176
     1
 90
        2
176
     1
 62
     7
176
     1
 90
        5
176
     1
 90
        0
176
     1
 90
        0
176
     1
290
     0
176
     1
 90
       13
176
     1
 40
0.0
176
     1
 90
        0
176
     1
290
     0
176
     1
290
     1
176
     1
290
     1
176
     1
290
     0
176
     1
290
     0
176
     1
290
     0
176
     1
290
     0
176
     1
290
     0
176
     1
290
     0
176
     1
 90
       50
176
     1
 40
0.0
176
     1
 40
1.0
176
     1
 90
        0
176
     1
 62
    18
420
        0
176
     1
 90
       50
176
     1
 90
        3
176
     1
 62
     5
420
      255
176
     1
290
     0
176
     1
 90
       50
176
     1
 90
       50
176
     1
 90
       50
176
     1
290
     0
176
     1
 90
       50
176
     1
 62
   256
176
     0
 40
1.0
176
     0
 90
        2
176
     1
  1
strokes_ogs.tif
176
     1
290
     0
176
     1
 40
1.0
176
     1
 40
1.0
176
     1
  0
VISUALSTYLE
  5
1D5
102
{ACAD_REACTORS
330
1D2
102
}
330
1D2
100
AcDbVisualStyle
  2
Gouraud
 70
     2
177
     3
291
     1
 70
    58
 90
        2
176
     1
 90
        2
176
     1
 90
        1
176
     1
 90
        2
176
     1
 40
0.6
176
     1
 40
30.0
176
     1
 62
     7
420
 16777215
176
     1
 90
        0
176
     1
 90
        0
176
     1
 62
     7
176
     1
 62
   257
176
     1
 90
        1
176
     1
 90
        1
176
     1
 40
1.0
176
     1
 90
        0
176
     1
 62
     7
176
     1
 40
1.0
176
     1
 90
        1
176
     1
 90
        6
176
     1
 90
        2
176
     1
 62
     7
176
     1
 90
        5
176
     1
 90
        0
176
     1
 90
        0
176
     1
290
     0
176
     1
 90
       13
176
     1
 40
0.0
176
     1
 90
        0
176
     1
290
     0
176
     1
290
     1
176
     1
290
     1
176
     1
290
     0
176
     1
290
     0
176
     1
290
     0
176
     1
290
     0
176
     1
290
     0
176
     1
290
     0
176
     1
 90
       50
176
     1
 40
0.0
176
     1
 40
1.0
176
     1
 90
        0
176
     1
 62
    18
420
        0
176
     1
 90
       50
176
     1
 90
        3
176
     1
 62
     5
420
      255
176
     1
290
     0
176
     1
 90
       50
176
     1
 90
       50
176
     1
 90
       50
176
     1
290
     0
176
     1
 90
       50
176
     1
 62
   256
176
     0
 40
1.0
176
     0
 90
        2
176
     1
  1
strokes_ogs.tif
176
     1
290
     0
176
     1
 40
1.0
176
     1
 40
1.0
176
     1
  0
VISUALSTYLE
  5
1D6
102
{ACAD_REACTORS
330
1D2
102
}
330
1D2
100
AcDbVisualStyle
  2
GouraudWithEdges
 70
     3
177
     3
291
     1
 70
    58
 90
        2
176
     1
 90
        2
176
     1
 90
        1
176
     1
 90
        2
176
     1
 40
0.6
176
     1
 40
30.0
176
     1
 62
     7
420
 16777215
176
     1
 90
        1
176
     1
 90
        0
176
     1
 62
     7
176
     1
 62
   257
176
     1
 90
        1
176
     1
 90
        1
176
     1
 40
1.0
176
     1
 90
        0
176
     1
 62
   257
176
     1
 40
1.0
176
     1
 90
        1
176
     1
 90
        6
176
     1
 90
        2
176
     1
 62
     7
176
     1
 90
        5
176
     1
 90
        0
176
     1
 90
        0
176
     1
290
     0
176
     1
 90
       13
176
     1
 40
0.0
176
     1
 90
        0
176
     1
290
     0
176
     1
290
     1
176
     1
290
     1
176
     1
290
     0
176
     1
290
     0
176
     1
290
     0
176
     1
290
     0
176
     1
290
     0
176
     1
290
     0
176
     1
 90
       50
176
     1
 40
0.0
176
     1
 40
1.0
176
     1
 90
        0
176
     1
 62
    18
420
        0
176
     1
 90
       50
176
     1
 90
        3
176
     1
 62
     5
420
      255
176
     1
290
     0
176
     1
 90
       50
176
     1
 90
       50
176
     1
 90
       50
176
     1
290
     0
176
     1
 90
       50
176
     1
 62
   256
176
     0
 40
1.0
176
     0
 90
        2
176
     1
  1
strokes_ogs.tif
176
     1
290
     0
176
     1
 40
1.0
176
     1
 40
1.0
176
     1
  0
VISUALSTYLE
  5
1D9
102
{ACAD_REACTORS
330
1D2
102
}
330
1D2
100
AcDbVisualStyle
  2
Hidden
 70
     6
177
     3
291
     0
 70
    58
 90
        1
176
     1
 90
        2
176
     1
 90
        2
176
     1
 90
        0
176
     1
 40
0.6
176
     1
 40
30.0
176
     1
 62
     7
420
 16777215
176
     1
 90
        2
176
     1
 90
        2
176
     1
 62
     7
176
     1
 62
   257
176
     1
 90
        2
176
     1
 90
        1
176
     1
 40
40.0
176
     1
 90
        0
176
     1
 62
   257
176
     1
 40
1.0
176
     1
 90
        1
176
     1
 90
        6
176
     1
 90
        2
176
     1
 62
     7
176
     1
 90
        3
176
     1
 90
        0
176
     1
 90
        0
176
     1
290
     0
176
     1
 90
        1
176
     1
 40
0.0
176
     1
 90
        0
176
     1
290
     0
176
     1
290
     1
176
     1
290
     1
176
     1
290
     0
176
     1
290
     0
176
     1
290
     0
176
     1
290
     0
176
     1
290
     0
176
     1
290
     0
176
     1
 90
       50
176
     1
 40
0.0
176
     1
 40
1.0
176
     1
 90
        0
176
     1
 62
    18
420
        0
176
     1
 90
       50
176
     1
 90
        3
176
     1
 62
     5
420
      255
176
     1
290
     0
176
     1
 90
       50
176
     1
 90
       50
176
     1
 90
       50
176
     1
290
     0
176
     1
 90
       50
176
     1
 62
   256
176
     0
 40
1.0
176
     0
 90
        2
176
     1
  1
strokes_ogs.tif
176
     1
290
     0
176
     1
 40
1.0
176
     1
 40
1.0
176
     1
  0
VISUALSTYLE
  5
1E3
102
{ACAD_REACTORS
330
1D2
102
}
330
1D2
100
AcDbVisualStyle
  2
JitterOff
 70
    20
177
     3
291
     1
 70
    58
 90
        2
176
     0
 90
        2
176
     0
 90
        0
176
     0
 90
        0
176
     0
 40
0.6
176
     0
 40
30.0
176
     0
 62
     7
420
 16777215
176
     0
 90
        1
176
     0
 90
        4
176
     0
 62
     7
176
     0
 62
   257
176
     0
 90
        1
176
     0
 90
        1
176
     0
 40
1.0
176
     0
 90
       10
176
     2
 62
     7
176
     0
 40
1.0
176
     0
 90
        1
176
     0
 90
        6
176
     0
 90
        2
176
     0
 62
     7
176
     0
 90
        5
176
     0
 90
        0
176
     0
 90
        0
176
     0
290
     0
176
     0
 90
        1
176
     0
 40
0.0
176
     0
 90
        0
176
     0
290
     0
176
     0
290
     1
176
     0
290
     1
176
     0
290
     0
176
     0
290
     0
176
     0
290
     0
176
     0
290
     0
176
     0
290
     0
176
     0
290
     0
176
     0
 90
       50
176
     0
 40
0.0
176
     0
 40
1.0
176
     0
 90
        0
176
     0
 62
    18
420
        0
176
     0
 90
       50
176
     0
 90
        3
176
     0
 62
     5
420
      255
176
     0
290
     0
176
     0
 90
       50
176
     0
 90
       50
176
     0
 90
       50
176
     0
290
     0
176
     0
 90
       50
176
     0
 62
   256
176
     0
 40
1.0
176
     0
 90
        2
176
     0
  1
strokes_ogs.tif
176
     0
290
     0
176
     0
 40
1.0
176
     0
 40
1.0
176
     0
  0
VISUALSTYLE
  5
1E0
102
{ACAD_REACTORS
330
1D2
102
}
330
1D2
100
AcDbVisualStyle
  2
Linepattern
 70
    14
177
     3
291
     1
 70
    58
 90
        2
176
     1
 90
        2
176
     1
 90
        0
176
     1
 90
        0
176
     1
 40
0.6
176
     1
 40
30.0
176
     1
 62
     7
420
 16777215
176
     1
 90
        1
176
     1
 90
        4
176
     1
 62
     7
176
     1
 62
   257
176
     1
 90
        7
176
     1
 90
        7
176
     1
 40
1.0
176
     1
 90
        8
176
     1
 62
     7
176
     1
 40
1.0
176
     1
 90
        1
176
     1
 90
        6
176
     1
 90
        2
176
     1
 62
     7
176
     1
 90
        5
176
     1
 90
        0
176
     1
 90
        0
176
     1
290
     0
176
     1
 90
        1
176
     1
 40
0.0
176
     1
 90
        0
176
     1
290
     0
176
     1
290
     1
176
     1
290
     1
176
     1
290
     0
176
     1
290
     0
176
     1
290
     0
176
     1
290
     0
176
     1
290
     0
176
     1
290
     0
176
     1
 90
       50
176
     1
 40
0.0
176
     1
 40
1.0
176
     1
 90
        0
176
     1
 62
    18
420
        0
176
     1
 90
       50
176
     1
 90
        3
176
     1
 62
     5
420
      255
176
     1
290
     0
176
     1
 90
       50
176
     1
 90
       50
176
     1
 90
       50
176
     1
290
     0
176
     1
 90
       50
176
     1
 62
   256
176
     0
 40
1.0
176
     0
 90
        2
176
     1
  1
strokes_ogs.tif
176
     1
290
     0
176
     1
 40
1.0
176
     1
 40
1.0
176
     1
  0
VISUALSTYLE
  5
1E4
102
{ACAD_REACTORS
330
1D2
102
}
330
1D2
100
AcDbVisualStyle
  2
OverhangOff
 70
    21
177
     3
291
     1
 70
    58
 90
        2
176
     0
 90
        2
176
     0
 90
        0
176
     0
 90
        0
176
     0
 40
0.6
176
     0
 40
30.0
176
     0
 62
     7
420
 16777215
176
     0
 90
        1
176
     0
 90
        4
176
     0
 62
     7
176
     0
 62
   257
176
     0
 90
        1
176
     0
 90
        1
176
     0
 40
1.0
176
     0
 90
        9
176
     2
 62
     7
176
     0
 40
1.0
176
     0
 90
        1
176
     0
 90
        6
176
     0
 90
        2
176
     0
 62
     7
176
     0
 90
        5
176
     0
 90
        0
176
     0
 90
        0
176
     0
290
     0
176
     0
 90
        1
176
     0
 40
0.0
176
     0
 90
        0
176
     0
290
     0
176
     0
290
     1
176
     0
290
     1
176
     0
290
     0
176
     0
290
     0
176
     0
290
     0
176
     0
290
     0
176
     0
290
     0
176
     0
290
     0
176
     0
 90
       50
176
     0
 40
0.0
176
     0
 40
1.0
176
     0
 90
        0
176
     0
 62
    18
420
        0
176
     0
 90
       50
176
     0
 90
        3
176
     0
 62
     5
420
      255
176
     0
290
     0
176
     0
 90
       50
176
     0
 90
       50
176
     0
 90
       50
176
     0
290
     0
176
     0
 90
       50
176
     0
 62
   256
176
     0
 40
1.0
176
     0
 90
        2
176
     0
  1
strokes_ogs.tif
176
     0
290
     0
176
     0
 40
1.0
176
     0
 40
1.0
176
     0
  0
VISUALSTYLE
  5
1DB
102
{ACAD_REACTORS
330
1D2
102
}
330
1D2
100
AcDbVisualStyle
  2
Realistic
 70
     8
177
     3
291
     0
 70
    58
 90
        2
176
     1
 90
        3
176
     1
 90
        0
176
     1
 90
        2
176
     1
 40
0.6
176
     1
 40
30.0
176
     1
 62
     7
420
 16777215
176
     1
 90
        0
176
     1
 90
        0
176
     1
 62
     7
176
     1
 62
   257
176
     1
 90
        1
176
     1
 90
        1
176
     1
 40
1.0
176
     1
 90
        8
176
     1
 62
   257
176
     1
 40
1.0
176
     1
 90
        1
176
     1
 90
        6
176
     1
 90
        2
176
     1
 62
     7
176
     1
 90
        3
176
     1
 90
        0
176
     1
 90
        0
176
     1
290
     0
176
     1
 90
       13
176
     1
 40
0.0
176
     1
 90
        0
176
     1
290
     0
176
     1
290
     1
176
     1
290
     1
176
     1
290
     0
176
     1
290
     0
176
     1
290
     0
176
     1
290
     0
176
     1
290
     0
176
     1
290
     0
176
     1
 90
       50
176
     1
 40
0.0
176
     1
 40
1.0
176
     1
 90
        0
176
     1
 62
    18
420
        0
176
     1
 90
       50
176
     1
 90
        3
176
     1
 62
     5
420
      255
176
     1
290
     0
176
     1
 90
       50
176
     1
 90
       50
176
     1
 90
       50
176
     1
290
     0
176
     1
 90
       50
176
     1
 62
   256
176
     0
 40
1.0
176
     0
 90
        2
176
     1
  1
strokes_ogs.tif
176
     1
290
     0
176
     1
 40
1.0
176
     1
 40
1.0
176
     1
  0
VISUALSTYLE
  5
1EA
102
{ACAD_REACTORS
330
1D2
102
}
330
1D2
100
AcDbVisualStyle
  2
Shaded
 70
    27
177
     3
291
     0
 70
    58
 90
        2
176
     1
 90
        2
176
     1
 90
        1
176
     1
 90
        2
176
     1
 40
0.6
176
     1
 40
30.0
176
     1
 62
     7
420
 16777215
176
     1
 90
        0
176
     1
 90
        4
176
     1
 62
     7
176
     1
 62
   257
176
     1
 90
        1
176
     1
 90
        1
176
     1
 40
1.0
176
     1
 90
        8
176
     1
 62
   257
176
     1
 40
1.0
176
     1
 90
        1
176
     1
 90
        6
176
     1
 90
        2
176
     1
 62
     8
420
  7895160
176
     1
 90
        3
176
     1
 90
        0
176
     1
 90
        0
176
     1
290
     0
176
     1
 90
        5
176
     1
 40
0.0
176
     1
 90
        0
176
     1
290
     0
176
     1
290
     1
176
     1
290
     1
176
     1
290
     0
176
     1
290
     0
176
     1
290
     0
176
     1
290
     0
176
     1
290
     0
176
     1
290
     0
176
     1
 90
       50
176
     1
 40
0.0
176
     1
 40
1.0
176
     1
 90
        0
176
     1
 62
    18
420
        0
176
     1
 90
       50
176
     1
 90
        3
176
     1
 62
     5
420
      255
176
     1
290
     0
176
     1
 90
       50
176
     1
 90
       50
176
     1
 90
       50
176
     1
290
     0
176
     1
 90
       50
176
     1
 62
   256
176
     0
 40
1.0
176
     0
 90
        2
176
     1
  1
strokes_ogs.tif
176
     1
290
     0
176
     1
 40
1.0
176
     1
 40
1.0
176
     1
  0
VISUALSTYLE
  5
1E9
102
{ACAD_REACTORS
330
1D2
102
}
330
1D2
100
AcDbVisualStyle
  2
Shaded with edges
 70
    26
177
     3
291
     0
 70
    58
 90
        2
176
     1
 90
        2
176
     1
 90
        1
176
     1
 90
        2
176
     1
 40
0.6
176
     1
 40
30.0
176
     1
 62
     7
420
 16777215
176
     1
 90
        1
176
     1
 90
       10
176
     1
 62
     7
176
     1
 62
   257
176
     1
 90
        2
176
     1
 90
        1
176
     1
 40
1.0
176
     1
 90
        8
176
     1
 62
   257
176
     1
 40
1.0
176
     1
 90
        1
176
     1
 90
        6
176
     1
 90
        2
176
     1
 62
     7
176
     1
 90
        3
176
     1
 90
        0
176
     1
 90
        0
176
     1
290
     0
176
     1
 90
        5
176
     1
 40
0.0
176
     1
 90
        0
176
     1
290
     0
176
     1
290
     1
176
     1
290
     1
176
     1
290
     0
176
     1
290
     0
176
     1
290
     0
176
     1
290
     0
176
     1
290
     0
176
     1
290
     0
176
     1
 90
       50
176
     1
 40
0.0
176
     1
 40
1.0
176
     1
 90
        0
176
     1
 62
    18
420
        0
176
     1
 90
       50
176
     1
 90
        3
176
     1
 62
     5
420
      255
176
     1
290
     0
176
     1
 90
       50
176
     1
 90
       50
176
     1
 90
       50
176
     1
290
     0
176
     1
 90
       50
176
     1
 62
   256
176
     0
 40
1.0
176
     0
 90
        2
176
     1
  1
strokes_ogs.tif
176
     1
290
     0
176
     1
 40
1.0
176
     1
 40
1.0
176
     1
  0
VISUALSTYLE
  5
1E6
102
{ACAD_REACTORS
330
1D2
102
}
330
1D2
100
AcDbVisualStyle
  2
Shades of Gray
 70
    23
177
     3
291
     0
 70
    58
 90
        2
176
     1
 90
        2
176
     1
 90
        3
176
     1
 90
        0
176
     1
 40
0.6
176
     1
 40
30.0
176
     1
 62
     7
420
 16777215
176
     1
 90
        2
176
     1
 90
        2
176
     1
 62
     7
176
     1
 62
     7
176
     1
 90
        1
176
     1
 90
        1
176
     1
 40
40.0
176
     1
 90
        8
176
     1
 62
     7
176
     1
 40
1.0
176
     1
 90
        1
176
     1
 90
        6
176
     1
 90
        2
176
     1
 62
     7
176
     1
 90
        3
176
     1
 90
        0
176
     1
 90
        0
176
     1
290
     0
176
     1
 90
        1
176
     1
 40
0.0
176
     1
 90
        0
176
     1
290
     0
176
     1
290
     1
176
     1
290
     1
176
     1
290
     0
176
     1
290
     0
176
     1
290
     0
176
     1
290
     0
176
     1
290
     0
176
     1
290
     0
176
     1
 90
       50
176
     1
 40
0.0
176
     1
 40
1.0
176
     1
 90
        0
176
     1
 62
    18
420
        0
176
     1
 90
       50
176
     1
 90
        3
176
     1
 62
     5
420
      255
176
     1
290
     0
176
     1
 90
       50
176
     1
 90
       50
176
     1
 90
       50
176
     1
290
     0
176
     1
 90
       50
176
     1
 62
   256
176
     0
 40
1.0
176
     0
 90
        2
176
     1
  1
strokes_ogs.tif
176
     1
290
     0
176
     1
 40
1.0
176
     1
 40
1.0
176
     1
  0
VISUALSTYLE
  5
1E7
102
{ACAD_REACTORS
330
1D2
102
}
330
1D2
100
AcDbVisualStyle
  2
Sketchy
 70
    24
177
     3
291
     0
 70
    58
 90
        1
176
     1
 90
        2
176
     1
 90
        2
176
     1
 90
        0
176
     1
 40
0.6
176
     1
 40
30.0
176
     1
 62
     7
420
 16777215
176
     1
 90
        2
176
     1
 90
        2
176
     1
 62
     7
176
     1
 62
     7
176
     1
 90
        1
176
     1
 90
        1
176
     1
 40
40.0
176
     1
 90
       11
176
     1
 62
     7
176
     1
 40
1.0
176
     1
 90
        1
176
     1
 90
        6
176
     1
 90
        2
176
     1
 62
     7
176
     1
 90
        6
176
     1
 90
        0
176
     1
 90
        0
176
     1
290
     0
176
     1
 90
        1
176
     1
 40
0.0
176
     1
 90
        0
176
     1
290
     0
176
     1
290
     1
176
     1
290
     1
176
     1
290
     0
176
     1
290
     0
176
     1
290
     0
176
     1
290
     0
176
     1
290
     0
176
     1
290
     0
176
     1
 90
       50
176
     1
 40
0.0
176
     1
 40
1.0
176
     1
 90
        0
176
     1
 62
    18
420
        0
176
     1
 90
       50
176
     1
 90
        3
176
     1
 62
     5
420
      255
176
     1
290
     0
176
     1
 90
       50
176
     1
 90
       50
176
     1
 90
       50
176
     1
290
     0
176
     1
 90
       50
176
     1
 62
   256
176
     0
 40
1.0
176
     0
 90
        2
176
     1
  1
strokes_ogs.tif
176
     1
290
     0
176
     1
 40
1.0
176
     1
 40
1.0
176
     1
  0
VISUALSTYLE
  5
1DF
102
{ACAD_REACTORS
330
1D2
102
}
330
1D2
100
AcDbVisualStyle
  2
Thicken
 70
    13
177
     3
291
     1
 70
    58
 90
        2
176
     1
 90
        2
176
     1
 90
        0
176
     1
 90
        0
176
     1
 40
0.6
176
     1
 40
30.0
176
     1
 62
     7
420
 16777215
176
     1
 90
        1
176
     1
 90
        4
176
     1
 62
     7
176
     1
 62
   257
176
     1
 90
        1
176
     1
 90
        1
176
     1
 40
1.0
176
     1
 90
       12
176
     1
 62
     7
176
     1
 40
1.0
176
     1
 90
        1
176
     1
 90
        6
176
     1
 90
        2
176
     1
 62
     7
176
     1
 90
        5
176
     1
 90
        0
176
     1
 90
        0
176
     1
290
     0
176
     1
 90
        1
176
     1
 40
0.0
176
     1
 90
        0
176
     1
290
     0
176
     1
290
     1
176
     1
290
     1
176
     1
290
     0
176
     1
290
     0
176
     1
290
     0
176
     1
290
     0
176
     1
290
     0
176
     1
290
     0
176
     1
 90
       50
176
     1
 40
0.0
176
     1
 40
1.0
176
     1
 90
        0
176
     1
 62
    18
420
        0
176
     1
 90
       50
176
     1
 90
        3
176
     1
 62
     5
420
      255
176
     1
290
     0
176
     1
 90
       50
176
     1
 90
       50
176
     1
 90
       50
176
     1
290
     0
176
     1
 90
       50
176
     1
 62
   256
176
     0
 40
1.0
176
     0
 90
        2
176
     1
  1
strokes_ogs.tif
176
     1
290
     0
176
     1
 40
1.0
176
     1
 40
1.0
176
     1
  0
VISUALSTYLE
  5
1D8
102
{ACAD_REACTORS
330
1D2
102
}
330
1D2
100
AcDbVisualStyle
  2
Wireframe
 70
     5
177
     3
291
     0
 70
    58
 90
        0
176
     1
 90
        2
176
     1
 90
        0
176
     1
 90
        0
176
     1
 40
0.6
176
     1
 40
30.0
176
     1
 62
     7
420
 16777215
176
     1
 90
        1
176
     1
 90
        4
176
     1
 62
     7
176
     1
 62
   257
176
     1
 90
        1
176
     1
 90
        1
176
     1
 40
1.0
176
     1
 90
        0
176
     1
 62
   257
176
     1
 40
1.0
176
     1
 90
        1
176
     1
 90
        6
176
     1
 90
        2
176
     1
 62
     7
176
     1
 90
        3
176
     1
 90
        0
176
     1
 90
        0
176
     1
290
     0
176
     1
 90
        1
176
     1
 40
0.0
176
     1
 90
        0
176
     1
290
     0
176
     1
290
     1
176
     1
290
     1
176
     1
290
     0
176
     1
290
     0
176
     1
290
     0
176
     1
290
     0
176
     1
290
     0
176
     1
290
     0
176
     1
 90
       50
176
     1
 40
0.0
176
     1
 40
1.0
176
     1
 90
        0
176
     1
 62
    18
420
        0
176
     1
 90
       50
176
     1
 90
        3
176
     1
 62
     5
420
      255
176
     1
290
     0
176
     1
 90
       50
176
     1
 90
       50
176
     1
 90
       50
176
     1
290
     0
176
     1
 90
       50
176
     1
 62
   256
176
     0
 40
1.0
176
     0
 90
        2
176
     1
  1
strokes_ogs.tif
176
     1
290
     0
176
     1
 40
1.0
176
     1
 40
1.0
176
     1
  0
VISUALSTYLE
  5
1E8
102
{ACAD_REACTORS
330
1D2
102
}
330
1D2
100
AcDbVisualStyle
  2
X-Ray
 70
    25
177
     3
291
     0
 70
    58
 90
        2
176
     1
 90
        2
176
     1
 90
        1
176
     1
 90
        1
176
     1
 40
0.5
176
     1
 40
30.0
176
     1
 62
     7
420
 16777215
176
     1
 90
        1
176
     1
 90
        0
176
     1
 62
     7
176
     1
 62
   257
176
     1
 90
        1
176
     1
 90
        1
176
     1
 40
1.0
176
     1
 90
        8
176
     1
 62
     7
176
     1
 40
1.0
176
     1
 90
        1
176
     1
 90
        6
176
     1
 90
        2
176
     1
 62
     7
176
     1
 90
        3
176
     1
 90
        0
176
     1
 90
        0
176
     1
290
     0
176
     1
 90
       13
176
     1
 40
0.0
176
     1
 90
        0
176
     1
290
     0
176
     1
290
     1
176
     1
290
     1
176
     1
290
     0
176
     1
290
     0
176
     1
290
     0
176
     1
290
     0
176
     1
290
     0
176
     1
290
     0
176
     1
 90
       50
176
     1
 40
0.0
176
     1
 40
1.0
176
     1
 90
        0
176
     1
 62
    18
420
        0
176
     1
 90
       50
176
     1
 90
        3
176
     1
 62
     5
420
      255
176
     1
290
     0
176
     1
 90
       50
176
     1
 90
       50
176
     1
 90
       50
176
     1
290
     0
176
     1
 90
       50
176
     1
 62
   256
176
     0
 40
1.0
176
     0
 90
        2
176
     1
  1
strokes_ogs.tif
176
     1
290
     0
176
     1
 40
1.0
176
     1
 40
1.0
176
     1
  0
DICTIONARYVAR
  5
1F5
102
{ACAD_REACTORS
330
1F4
102
}
330
1F4
100
DictionaryVariables
280
     0
  1
1:1
  0
DICTIONARYVAR
  5
1F7
102
{ACAD_REACTORS
330
1F4
102
}
330
1F4
100
DictionaryVariables
280
     0
  1
Standard
  0
DICTIONARYVAR
  5
1F6
102
{ACAD_REACTORS
330
1F4
102
}
330
1F4
100
DictionaryVariables
280
     0
  1
Standard
  0
DICTIONARYVAR
  5
1F8
102
{ACAD_REACTORS
330
1F4
102
}
330
1F4
100
DictionaryVariables
280
     0
  1
0
  0
DICTIONARY
  5
203
330
1F0
100
AcDbDictionary
280
     1
281
     1
  3
ACAD_ROUNDTRIP_2008_TABLESTYLE_CELLSTYLEMAP
360
204
  0
CELLSTYLEMAP
  5
204
102
{ACAD_REACTORS
330
203
102
}
330
203
100
AcDbCellStyleMap
 90
        3
300
CELLSTYLE
  1
TABLEFORMAT_BEGIN
 90
        5
170
     1
 91
        0
 92
    32768
 62
   257
 93
        1
300
CONTENTFORMAT
  1
CONTENTFORMAT_BEGIN
 90
        0
 91
        0
 92
        4
 93
        0
300

 40
0.0
140
1.0
 94
        5
 62
     0
340
17
144
6.0
309
CONTENTFORMAT_END
171
     1
301
MARGIN
  1
CELLMARGIN_BEGIN
 40
1.5
 40
1.5
 40
1.5
 40
1.5
 40
1.5
 40
1.5
309
CELLMARGIN_END
 94
        6
 95
        1
302
GRIDFORMAT
  1
GRIDFORMAT_BEGIN
 90
        0
 91
        1
 62
     0
 92
       -2
340
11
 93
        0
 40
0.045
309
GRIDFORMAT_END
 95
        2
302
GRIDFORMAT
  1
GRIDFORMAT_BEGIN
 90
        0
 91
        1
 62
     0
 92
       -2
340
11
 93
        0
 40
0.045
309
GRIDFORMAT_END
 95
        4
302
GRIDFORMAT
  1
GRIDFORMAT_BEGIN
 90
        0
 91
        1
 62
     0
 92
       -2
340
11
 93
        0
 40
0.045
309
GRIDFORMAT_END
 95
        8
302
GRIDFORMAT
  1
GRIDFORMAT_BEGIN
 90
        0
 91
        1
 62
     0
 92
       -2
340
11
 93
        0
 40
0.045
309
GRIDFORMAT_END
 95
       16
302
GRIDFORMAT
  1
GRIDFORMAT_BEGIN
 90
        0
 91
        1
 62
     0
 92
       -2
340
11
 93
        0
 40
0.045
309
GRIDFORMAT_END
 95
       32
302
GRIDFORMAT
  1
GRIDFORMAT_BEGIN
 90
        0
 91
        1
 62
     0
 92
       -2
340
11
 93
        0
 40
0.045
309
GRIDFORMAT_END
309
TABLEFORMAT_END
  1
CELLSTYLE_BEGIN
 90
        1
 91
        1
300
_TITLE
309
CELLSTYLE_END
300
CELLSTYLE
  1
TABLEFORMAT_BEGIN
 90
        5
170
     1
 91
        0
 92
        0
 62
   257
 93
        1
300
CONTENTFORMAT
  1
CONTENTFORMAT_BEGIN
 90
        0
 91
        0
 92
        4
 93
        0
300

 40
0.0
140
1.0
 94
        5
 62
     0
340
17
144
4.5
309
CONTENTFORMAT_END
171
     1
301
MARGIN
  1
CELLMARGIN_BEGIN
 40
1.5
 40
1.5
 40
1.5
 40
1.5
 40
1.5
 40
1.5
309
CELLMARGIN_END
 94
        6
 95
        1
302
GRIDFORMAT
  1
GRIDFORMAT_BEGIN
 90
        0
 91
        1
 62
     0
 92
       -2
340
11
 93
        0
 40
0.045
309
GRIDFORMAT_END
 95
        2
302
GRIDFORMAT
  1
GRIDFORMAT_BEGIN
 90
        0
 91
        1
 62
     0
 92
       -2
340
11
 93
        0
 40
0.045
309
GRIDFORMAT_END
 95
        4
302
GRIDFORMAT
  1
GRIDFORMAT_BEGIN
 90
        0
 91
        1
 62
     0
 92
       -2
340
11
 93
        0
 40
0.045
309
GRIDFORMAT_END
 95
        8
302
GRIDFORMAT
  1
GRIDFORMAT_BEGIN
 90
        0
 91
        1
 62
     0
 92
       -2
340
11
 93
        0
 40
0.045
309
GRIDFORMAT_END
 95
       16
302
GRIDFORMAT
  1
GRIDFORMAT_BEGIN
 90
        0
 91
        1
 62
     0
 92
       -2
340
11
 93
        0
 40
0.045
309
GRIDFORMAT_END
 95
       32
302
GRIDFORMAT
  1
GRIDFORMAT_BEGIN
 90
        0
 91
        1
 62
     0
 92
       -2
340
11
 93
        0
 40
0.045
309
GRIDFORMAT_END
309
TABLEFORMAT_END
  1
CELLSTYLE_BEGIN
 90
        2
 91
        1
300
_HEADER
309
CELLSTYLE_END
300
CELLSTYLE
  1
TABLEFORMAT_BEGIN
 90
        5
170
     1
 91
        0
 92
        0
 62
   257
 93
        1
300
CONTENTFORMAT
  1
CONTENTFORMAT_BEGIN
 90
        0
 91
        0
 92
        4
 93
        0
300

 40
0.0
140
1.0
 94
        2
 62
     0
340
17
144
4.5
309
CONTENTFORMAT_END
171
     1
301
MARGIN
  1
CELLMARGIN_BEGIN
 40
1.5
 40
1.5
 40
1.5
 40
1.5
 40
1.5
 40
1.5
309
CELLMARGIN_END
 94
        6
 95
        1
302
GRIDFORMAT
  1
GRIDFORMAT_BEGIN
 90
        0
 91
        1
 62
     0
 92
       -2
340
11
 93
        0
 40
0.045
309
GRIDFORMAT_END
 95
        2
302
GRIDFORMAT
  1
GRIDFORMAT_BEGIN
 90
        0
 91
        1
 62
     0
 92
       -2
340
11
 93
        0
 40
0.045
309
GRIDFORMAT_END
 95
        4
302
GRIDFORMAT
  1
GRIDFORMAT_BEGIN
 90
        0
 91
        1
 62
     0
 92
       -2
340
11
 93
        0
 40
0.045
309
GRIDFORMAT_END
 95
        8
302
GRIDFORMAT
  1
GRIDFORMAT_BEGIN
 90
        0
 91
        1
 62
     0
 92
       -2
340
11
 93
        0
 40
0.045
309
GRIDFORMAT_END
 95
       16
302
GRIDFORMAT
  1
GRIDFORMAT_BEGIN
 90
        0
 91
        1
 62
     0
 92
       -2
340
11
 93
        0
 40
0.045
309
GRIDFORMAT_END
 95
       32
302
GRIDFORMAT
  1
GRIDFORMAT_BEGIN
 90
        0
 91
        1
 62
     0
 92
       -2
340
11
 93
        0
 40
0.045
309
GRIDFORMAT_END
309
TABLEFORMAT_END
  1
CELLSTYLE_BEGIN
 90
        3
 91
        2
300
_DATA
309
CELLSTYLE_END
  0
ENDSEC
  0
EOF
