  0
SECTION
  2
HEADER
  9
$ACADVER
  1
AC1027
  9
$ACADMAINTVER
 70
   105
  9
$DWGCODEPAGE
  3
ANSI_932
  9
$REQUIREDVERSIONS
160
                 0
  9
$LASTSAVEDBY
  1
9128
  9
$INSBASE
 10
0.0
 20
0.0
 30
0.0
  9
$EXTMIN
 10
180.465410131714
 20
111.2035894097222
 30
0.0
  9
$EXTMAX
 10
272.9149674479167
 20
205.2942431890582
 30
0.0
  9
$LIMMIN
 10
0.0
 20
0.0
  9
$LIMMAX
 10
0.0
 20
0.0
  9
$ORTHOMODE
 70
     0
  9
$REGENMODE
 70
     1
  9
$FILLMODE
 70
     1
  9
$QTEXTMODE
 70
     0
  9
$MIRRTEXT
 70
     1
  9
$LTSCALE
 40
12.7
  9
$ATTMODE
 70
     1
  9
$TEXTSIZE
 40
0.0
  9
$TRACEWID
 40
1.0
  9
$TEXTSTYLE
  7
Standard
  9
$CLAYER
  8
0
  9
$CELTYPE
  6
Continuous
  9
$CECOLOR
 62
   256
  9
$CELTSCALE
 40
1.0
  9
$DISPSILH
 70
     0
  9
$DIMSCALE
 40
1.0
  9
$DIMASZ
 40
0.18
  9
$DIMEXO
 40
0.0625
  9
$DIMDLI
 40
0.38
  9
$DIMRND
 40
0.0
  9
$DIMDLE
 40
0.0
  9
$DIMEXE
 40
0.18
  9
$DIMTP
 40
0.0
  9
$DIMTM
 40
0.0
  9
$DIMTXT
 40
0.18
  9
$DIMCEN
 40
0.09
  9
$DIMTSZ
 40
0.0
  9
$DIMTOL
 70
     0
  9
$DIMLIM
 70
     0
  9
$DIMTIH
 70
     1
  9
$DIMTOH
 70
     1
  9
$DIMSE1
 70
     0
  9
$DIMSE2
 70
     0
  9
$DIMTAD
 70
     0
  9
$DIMZIN
 70
     0
  9
$DIMBLK
  1

  9
$DIMASO
 70
     1
  9
$DIMSHO
 70
     1
  9
$DIMPOST
  1

  9
$DIMAPOST
  1

  9
$DIMALT
 70
     0
  9
$DIMALTD
 70
     2
  9
$DIMALTF
 40
25.4
  9
$DIMLFAC
 40
1.0
  9
$DIMTOFL
 70
     0
  9
$DIMTVP
 40
0.0
  9
$DIMTIX
 70
     0
  9
$DIMSOXD
 70
     0
  9
$DIMSAH
 70
     0
  9
$DIMBLK1
  1

  9
$DIMBLK2
  1

  9
$DIMSTYLE
  2
Standard
  9
$DIMCLRD
 70
     0
  9
$DIMCLRE
 70
     0
  9
$DIMCLRT
 70
     0
  9
$DIMTFAC
 40
1.0
  9
$DIMGAP
 40
0.09
  9
$DIMJUST
 70
     0
  9
$DIMSD1
 70
     0
  9
$DIMSD2
 70
     0
  9
$DIMTOLJ
 70
     1
  9
$DIMTZIN
 70
     0
  9
$DIMALTZ
 70
     0
  9
$DIMALTTZ
 70
     0
  9
$DIMUPT
 70
     0
  9
$DIMDEC
 70
     4
  9
$DIMTDEC
 70
     4
  9
$DIMALTU
 70
     2
  9
$DIMALTTD
 70
     2
  9
$DIMTXSTY
  7
Standard
  9
$DIMAUNIT
 70
     0
  9
$DIMADEC
 70
     0
  9
$DIMALTRND
 40
0.0
  9
$DIMAZIN
 70
     0
  9
$DIMDSEP
 70
     0
  9
$DIMATFIT
 70
     3
  9
$DIMFRAC
 70
     0
  9
$DIMLDRBLK
  1

  9
$DIMLUNIT
 70
     2
  9
$DIMLWD
 70
     0
  9
$DIMLWE
 70
     0
  9
$DIMTMOVE
 70
     0
  9
$DIMFXL
 40
1.0
  9
$DIMFXLON
 70
     0
  9
$DIMJOGANG
 40
0.7853981633974483
  9
$DIMTFILL
 70
     0
  9
$DIMTFILLCLR
 70
     0
  9
$DIMARCSYM
 70
     0
  9
$DIMLTYPE
  6

  9
$DIMLTEX1
  6

  9
$DIMLTEX2
  6

  9
$DIMTXTDIRECTION
 70
     0
  9
$LUNITS
 70
     2
  9
$LUPREC
 70
     4
  9
$SKETCHINC
 40
0.1
  9
$FILLETRAD
 40
0.0
  9
$AUNITS
 70
     0
  9
$AUPREC
 70
     0
  9
$MENU
  1
acad
  9
$ELEVATION
 40
0.0
  9
$PELEVATION
 40
0.0
  9
$THICKNESS
 40
0.0
  9
$LIMCHECK
 70
     0
  9
$CHAMFERA
 40
0.0
  9
$CHAMFERB
 40
0.0
  9
$CHAMFERC
 40
0.0
  9
$CHAMFERD
 40
0.0
  9
$SKPOLY
 70
     0
  9
$TDCREATE
 40
2447893.375
  9
$TDUCREATE
 40
0.0
  9
$TDUPDATE
 40
2458515.479705671
  9
$TDUUPDATE
 40
2458515.104705671
  9
$TDINDWG
 40
0.0004081944
  9
$TDUSRTIMER
 40
2458515.1042975
  9
$USRTIMER
 70
     1
  9
$ANGBASE
 50
0.0
  9
$ANGDIR
 70
     0
  9
$PDMODE
 70
     1
  9
$PDSIZE
 40
-2.0
  9
$PLINEWID
 40
0.0
  9
$SPLFRAME
 70
     0
  9
$SPLINETYPE
 70
     6
  9
$SPLINESEGS
 70
     8
  9
$HANDSEED
  5
445
  9
$SURFTAB1
 70
     6
  9
$SURFTAB2
 70
     6
  9
$SURFTYPE
 70
     6
  9
$SURFU
 70
     6
  9
$SURFV
 70
     6
  9
$UCSBASE
  2

  9
$UCSNAME
  2

  9
$UCSORG
 10
0.0
 20
0.0
 30
0.0
  9
$UCSXDIR
 10
1.0
 20
0.0
 30
0.0
  9
$UCSYDIR
 10
0.0
 20
1.0
 30
0.0
  9
$UCSORTHOREF
  2

  9
$UCSORTHOVIEW
 70
     0
  9
$UCSORGTOP
 10
0.0
 20
0.0
 30
0.0
  9
$UCSORGBOTTOM
 10
0.0
 20
0.0
 30
0.0
  9
$UCSORGLEFT
 10
0.0
 20
0.0
 30
0.0
  9
$UCSORGRIGHT
 10
0.0
 20
0.0
 30
0.0
  9
$UCSORGFRONT
 10
0.0
 20
0.0
 30
0.0
  9
$UCSORGBACK
 10
0.0
 20
0.0
 30
0.0
  9
$PUCSBASE
  2

  9
$PUCSNAME
  2

  9
$PUCSORG
 10
0.0
 20
0.0
 30
0.0
  9
$PUCSXDIR
 10
1.0
 20
0.0
 30
0.0
  9
$PUCSYDIR
 10
0.0
 20
1.0
 30
0.0
  9
$PUCSORTHOREF
  2

  9
$PUCSORTHOVIEW
 70
     0
  9
$PUCSORGTOP
 10
0.0
 20
0.0
 30
0.0
  9
$PUCSORGBOTTOM
 10
0.0
 20
0.0
 30
0.0
  9
$PUCSORGLEFT
 10
0.0
 20
0.0
 30
0.0
  9
$PUCSORGRIGHT
 10
0.0
 20
0.0
 30
0.0
  9
$PUCSORGFRONT
 10
0.0
 20
0.0
 30
0.0
  9
$PUCSORGBACK
 10
0.0
 20
0.0
 30
0.0
  9
$USERI1
 70
     0
  9
$USERI2
 70
     0
  9
$USERI3
 70
     0
  9
$USERI4
 70
     0
  9
$USERI5
 70
     0
  9
$USERR1
 40
0.0
  9
$USERR2
 40
0.0
  9
$USERR3
 40
0.0
  9
$USERR4
 40
0.0
  9
$USERR5
 40
0.0
  9
$WORLDVIEW
 70
     1
  9
$SHADEDGE
 70
     3
  9
$SHADEDIF
 70
    70
  9
$TILEMODE
 70
     1
  9
$MAXACTVP
 70
    16
  9
$PINSBASE
 10
0.0
 20
0.0
 30
0.0
  9
$PLIMCHECK
 70
     0
  9
$PEXTMIN
 10
1.000000000000000E+20
 20
1.000000000000000E+20
 30
1.000000000000000E+20
  9
$PEXTMAX
 10
-1.000000000000000E+20
 20
-1.000000000000000E+20
 30
-1.000000000000000E+20
  9
$PLIMMIN
 10
1143.828266451171
 20
268.1004450492305
  9
$PLIMMAX
 10
1563.828266451171
 20
565.1004450492305
  9
$UNITMODE
 70
     0
  9
$VISRETAIN
 70
     0
  9
$PLINEGEN
 70
     1
  9
$PSLTSCALE
 70
     0
  9
$TREEDEPTH
 70
  3020
  9
$CMLSTYLE
  2
Standard
  9
$CMLJUST
 70
     0
  9
$CMLSCALE
 40
1.0
  9
$PROXYGRAPHICS
 70
     0
  9
$MEASUREMENT
 70
     1
  9
$CELWEIGHT
370
     0
  9
$ENDCAPS
280
     0
  9
$JOINSTYLE
280
     0
  9
$LWDISPLAY
290
     1
  9
$INSUNITS
 70
     4
  9
$HYPERLINKBASE
  1

  9
$STYLESHEET
  1

  9
$XEDIT
290
     1
  9
$CEPSNTYPE
380
     0
  9
$PSTYLEMODE
290
     1
  9
$FINGERPRINTGUID
  2

  9
$VERSIONGUID
  2

  9
$EXTNAMES
290
     1
  9
$PSVPSCALE
 40
0.0
  9
$OLESTARTUP
290
     0
  9
$SORTENTS
280
   127
  9
$INDEXCTL
280
     0
  9
$HIDETEXT
280
     1
  9
$XCLIPFRAME
280
     2
  9
$HALOGAP
280
     0
  9
$OBSCOLOR
 70
   257
  9
$OBSLTYPE
280
     0
  9
$INTERSECTIONDISPLAY
280
     0
  9
$INTERSECTIONCOLOR
 70
   257
  9
$DIMASSOC
280
     2
  9
$PROJECTNAME
  1

  9
$CAMERADISPLAY
290
     0
  9
$LENSLENGTH
 40
50.0
  9
$CAMERAHEIGHT
 40
0.0
  9
$STEPSPERSEC
 40
2.0
  9
$STEPSIZE
 40
6.0
  9
$3DDWFPREC
 40
2.0
  9
$PSOLWIDTH
 40
0.25
  9
$PSOLHEIGHT
 40
4.0
  9
$LOFTANG1
 40
1.570796326794897
  9
$LOFTANG2
 40
1.570796326794897
  9
$LOFTMAG1
 40
0.0
  9
$LOFTMAG2
 40
0.0
  9
$LOFTPARAM
 70
     7
  9
$LOFTNORMALS
280
     1
  9
$LATITUDE
 40
37.795
  9
$LONGITUDE
 40
-122.394
  9
$NORTHDIRECTION
 40
0.0
  9
$TIMEZONE
 70
 -8000
  9
$LIGHTGLYPHDISPLAY
280
     1
  9
$TILEMODELIGHTSYNCH
280
     1
  9
$SOLIDHIST
280
     0
  9
$SHOWHIST
280
     1
  9
$DWFFRAME
280
     2
  9
$DGNFRAME
280
     2
  9
$REALWORLDSCALE
290
     1
  9
$INTERFERECOLOR
 62
   256
  9
$CSHADOW
280
     0
  9
$SHADOWPLANELOCATION
 40
0.0
  0
ENDSEC
  0
SECTION
  2
CLASSES
  0
CLASS
  1
LWPOLYLINE
  2
AcDbPolyline
  3
ObjectDBX Classes
 90
        0
 91
        1
280
     0
281
     1
  0
CLASS
  1
IMAGE
  2
AcDbRasterImage
  3
ISM
 90
      127
 91
        5
280
     0
281
     1
  0
CLASS
  1
OLE2FRAME
  2
AcDbOle2Frame
  3
ObjectDBX Classes
 90
        0
 91
        1
280
     0
281
     1
  0
CLASS
  1
HATCH
  2
AcDbHatch
  3
ObjectDBX Classes
 90
        0
 91
        1
280
     0
281
     1
  0
CLASS
  1
DICTIONARYVAR
  2
AcDbDictionaryVar
  3
ObjectDBX Classes
 90
        0
 91
        4
280
     0
281
     0
  0
CLASS
  1
RASTERVARIABLES
  2
AcDbRasterVariables
  3
ISM
 90
        0
 91
        4
280
     0
281
     0
  0
CLASS
  1
IMAGEDEF
  2
AcDbRasterImageDef
  3
ISM
 90
        0
 91
        4
280
     0
281
     0
  0
CLASS
  1
IMAGEDEF_REACTOR
  2
AcDbRasterImageDefReactor
  3
ISM
 90
        1
 91
        4
280
     0
281
     0
  0
CLASS
  1
IDBUFFER
  2
AcDbIdBuffer
  3
ObjectDBX Classes
 90
        0
 91
        4
280
     0
281
     0
  0
CLASS
  1
SPATIAL_FILTER
  2
AcDbSpatialFilter
  3
ObjectDBX Classes
 90
        0
 91
        4
280
     0
281
     0
  0
CLASS
  1
XRECORD
  2
AcDbXrecord
  3
ObjectDBX Classes
 90
        0
 91
        1
280
     0
281
     0
  0
CLASS
  1
SORTENTSTABLE
  2
AcDbSortentsTable
  3
ObjectDBX Classes
 90
        0
 91
        4
280
     0
281
     0
  0
CLASS
  1
LAYER_INDEX
  2
AcDbLayerIndex
  3
ObjectDBX Classes
 90
        0
 91
        4
280
     0
281
     0
  0
CLASS
  1
SPATIAL_INDEX
  2
AcDbSpatialIndex
  3
AutoCAD 2000
 90
        0
 91
        4
280
     0
281
     0
  0
CLASS
  1
OBJECT_PTR
  2
CAseDLPNTableRecord
  3
ASE-LPNTableRecord
 90
        1
 91
        4
280
     0
281
     0
  0
CLASS
  1
LAYOUT
  2
AcDbLayout
  3
ObjectDBX Classes
 90
        0
 91
        1
280
     0
281
     0
  0
CLASS
  1
PLOTSETTINGS
  2
AcDbPlotSettings
  3
ObjectDBX Classes
 90
        0
 91
        4
280
     0
281
     0
  0
CLASS
  1
ACDBDICTIONARYWDFLT
  2
AcDbDictionaryWithDefault
  3
ObjectDBX Classes
 90
        0
 91
        4
280
     0
281
     0
  0
CLASS
  1
ACDBPLACEHOLDER
  2
AcDbPlaceHolder
  3
ObjectDBX Classes
 90
        0
 91
        1
280
     0
281
     0
  0
CLASS
  1
VBA_PROJECT
  2
AcDbVbaProject
  3
ObjectDBX Classes
 90
        0
 91
        1
280
     0
281
     0
  0
CLASS
  1
WIPEOUT
  2
AcDbWipeout
  3
WipeOut|AutoCAD Express Tool|expresstools@autodesk.com
 90
      127
 91
        4
280
     0
281
     1
  0
CLASS
  1
WIPEOUTVARIABLES
  2
AcDbWipeoutVariables
  3
WipeOut|AutoCAD Express Tool|expresstools@autodesk.com
 90
        0
 91
        4
280
     0
281
     0
  0
CLASS
  1
RTEXT
  2
RText
  3
RText|AutoCAD Express Tool|expresstools@autodesk.com
 90
        0
 91
        4
280
     0
281
     1
  0
CLASS
  1
ARCALIGNEDTEXT
  2
AcDbArcAlignedText
  3
ATEXT|AutoCAD Express Tool|expresstools@autodesk.com
 90
        0
 91
        4
280
     0
281
     1
  0
CLASS
  1
SCALE
  2
AcDbScale
  3
ObjectDBX Classes
 90
     1153
 91
        4
280
     0
281
     0
  0
CLASS
  1
VISUALSTYLE
  2
AcDbVisualStyle
  3
ObjectDBX Classes
 90
     4095
 91
        4
280
     0
281
     0
  0
CLASS
  1
MATERIAL
  2
AcDbMaterial
  3
ObjectDBX Classes
 90
     1153
 91
        4
280
     0
281
     0
  0
CLASS
  1
TABLESTYLE
  2
AcDbTableStyle
  3
ObjectDBX Classes
 90
     4095
 91
        4
280
     0
281
     0
  0
CLASS
  1
MLEADERSTYLE
  2
AcDbMLeaderStyle
  3
ACDB_MLEADERSTYLE_CLASS
 90
     4095
 91
        4
280
     0
281
     0
  0
CLASS
  1
SUN
  2
AcDbSun
  3
SCENEOE
 90
     1153
 91
        4
280
     0
281
     0
  0
CLASS
  1
CELLSTYLEMAP
  2
AcDbCellStyleMap
  3
ObjectDBX Classes
 90
     1152
 91
        4
280
     0
281
     0
  0
ENDSEC
  0
SECTION
  2
TABLES
  0
TABLE
  2
VPORT
  5
7
330
0
100
AcDbSymbolTable
 70
     1
  0
VPORT
  5
15
330
7
100
AcDbSymbolTableRecord
100
AcDbViewportTableRecord
  2
*ACTIVE
 70
     0
 10
0.0
 20
0.0
 11
1.0
 21
1.0
 12
232.790760525684
 22
179.6388733851049
 13
0.0
 23
0.0
 14
1.0
 24
1.0
 15
0.0
 25
0.0
 16
0.0
 26
0.0
 36
1.0
 17
0.0
 27
0.0
 37
0.0
 40
232.0923757011972
 41
1.754122938530735
 42
50.0
 43
0.0
 44
0.0
 50
0.0
 51
0.0
 71
    16
 72
   100
 73
     1
 74
     1
 75
     0
 76
     0
 77
     0
 78
     0
281
     0
 65
     0
110
0.0
120
0.0
130
0.0
111
1.0
121
0.0
131
0.0
112
0.0
122
1.0
132
0.0
 79
     0
146
0.0
348
41C
 60
     3
 61
     5
292
     1
282
     1
141
0.0
142
0.0
 63
   256
361
439
  0
ENDTAB
  0
TABLE
  2
LTYPE
  5
4
330
0
100
AcDbSymbolTable
 70
    11
  0
LTYPE
  5
11
330
4
100
AcDbSymbolTableRecord
100
AcDbLinetypeTableRecord
  2
ByBlock
 70
     0
  3

 72
    65
 73
     0
 40
0.0
  0
LTYPE
  5
12
330
4
100
AcDbSymbolTableRecord
100
AcDbLinetypeTableRecord
  2
ByLayer
 70
     0
  3

 72
    65
 73
     0
 40
0.0
  0
LTYPE
  5
13
330
4
100
AcDbSymbolTableRecord
100
AcDbLinetypeTableRecord
  2
Continuous
 70
     0
  3
Solid line
 72
    65
 73
     0
 40
0.0
  0
LTYPE
  5
25
330
4
100
AcDbSymbolTableRecord
100
AcDbLinetypeTableRecord
  2
STYLE_01
 70
     0
  3

 72
    65
 73
     2
 40
0.15
 49
0.1
 74
     0
 49
-0.05
 74
     0
  0
LTYPE
  5
26
330
4
100
AcDbSymbolTableRecord
100
AcDbLinetypeTableRecord
  2
STYLE_02
 70
     0
  3

 72
    65
 73
     6
 40
0.9999999999999999
 49
0.4999999999999999
 74
     0
 49
-0.1
 74
     0
 49
0.1
 74
     0
 49
-0.1
 74
     0
 49
0.1
 74
     0
 49
-0.1
 74
     0
  0
LTYPE
  5
27
330
4
100
AcDbSymbolTableRecord
100
AcDbLinetypeTableRecord
  2
STYLE_03
 70
     0
  3

 72
    65
 73
     4
 40
0.7999999999999999
 49
0.4999999999999999
 74
     0
 49
-0.1
 74
     0
 49
0.1
 74
     0
 49
-0.1
 74
     0
  0
LTYPE
  5
28
330
4
100
AcDbSymbolTableRecord
100
AcDbLinetypeTableRecord
  2
STYLE_04
 70
     0
  3

 72
    65
 73
     4
 40
1.6
 49
0.9999999999999999
 74
     0
 49
-0.2000000000000001
 74
     0
 49
0.2
 74
     0
 49
-0.2
 74
     0
  0
LTYPE
  5
29
330
4
100
AcDbSymbolTableRecord
100
AcDbLinetypeTableRecord
  2
STYLE_05
 70
     0
  3

 72
    65
 73
     2
 40
0.05
 49
0.0002
 74
     0
 49
-0.0498
 74
     0
  0
LTYPE
  5
2A
330
4
100
AcDbSymbolTableRecord
100
AcDbLinetypeTableRecord
  2
STYLE_06
 70
     0
  3

 72
    65
 73
     4
 40
0.416656
 49
0.25
 74
     0
 49
-0.083312
 74
     0
 49
0.027772
 74
     0
 49
-0.055572
 74
     0
  0
LTYPE
  5
2B
330
4
100
AcDbSymbolTableRecord
100
AcDbLinetypeTableRecord
  2
STYLE_07
 70
     0
  3

 72
    65
 73
     6
 40
0.75
 49
0.25
 74
     0
 49
-0.083312
 74
     0
 49
0.2500000000000001
 74
     0
 49
-0.083344
 74
     0
 49
0.027772
 74
     0
 49
-0.055572
 74
     0
  0
LTYPE
  5
2C
330
4
100
AcDbSymbolTableRecord
100
AcDbLinetypeTableRecord
  2
STYLE_08
 70
     0
  3

 72
    65
 73
     6
 40
0.5
 49
0.25
 74
     0
 49
-0.083312
 74
     0
 49
0.027772
 74
     0
 49
-0.055572
 74
     0
 49
0.027772
 74
     0
 49
-0.055572
 74
     0
  0
LTYPE
  5
2D
330
4
100
AcDbSymbolTableRecord
100
AcDbLinetypeTableRecord
  2
STYLE_09
 70
     0
  3

 72
    65
 73
     4
 40
2.0
 49
1.5
 74
     0
 49
-0.1111139999999999
 74
     0
 49
0.2777720000000001
 74
     0
 49
-0.1111139999999999
 74
     0
  0
LTYPE
  5
2E
330
4
100
AcDbSymbolTableRecord
100
AcDbLinetypeTableRecord
  2
STYLE_10
 70
     0
  3

 72
    65
 73
     6
 40
2.375
 49
1.5
 74
     0
 49
-0.1111139999999999
 74
     0
 49
0.2777720000000001
 74
     0
 49
-0.1111139999999999
 74
     0
 49
0.25
 74
     0
 49
-0.125
 74
     0
  0
ENDTAB
  0
TABLE
  2
LAYER
  5
2
330
0
100
AcDbSymbolTable
 70
     6
  0
LAYER
  5
14
330
2
100
AcDbSymbolTableRecord
100
AcDbLayerTableRecord
  2
0
 70
     0
 62
     7
  6
Continuous
370
    15
390
1D
347
433
348
0
  0
LAYER
  5
2F
330
2
100
AcDbSymbolTableRecord
100
AcDbLayerTableRecord
  2
Defpoints
 70
     0
 62
     7
  6
Continuous
290
     0
370
    -3
390
1D
347
433
348
0
  0
LAYER
  5
30
330
2
100
AcDbSymbolTableRecord
100
AcDbLayerTableRecord
  2
一般
 70
     0
 62
     7
  6
Continuous
370
     5
390
1D
347
433
348
0
  0
LAYER
  5
31
330
2
100
AcDbSymbolTableRecord
100
AcDbLayerTableRecord
  2
寸法
 70
     0
 62
     7
  6
Continuous
370
     5
390
1D
347
433
348
0
  0
LAYER
  5
32
330
2
100
AcDbSymbolTableRecord
100
AcDbLayerTableRecord
  2
レイヤー_1
 70
     0
 62
    19
  6
Continuous
370
    15
390
1D
347
433
348
0
  0
LAYER
  5
33
330
2
100
AcDbSymbolTableRecord
100
AcDbLayerTableRecord
  2
FORMAT
 70
     0
 62
     7
  6
Continuous
370
    15
390
1D
347
433
348
0
  0
ENDTAB
  0
TABLE
  2
STYLE
  5
3
330
0
100
AcDbSymbolTable
 70
     2
  0
STYLE
  5
17
330
3
100
AcDbSymbolTableRecord
100
AcDbTextStyleTableRecord
  2
Standard
 70
     0
 40
0.0
 41
1.0
 50
0.0
 71
     0
 42
0.0
  3
txt
  4
BIGFONT.SHX
  0
STYLE
  5
24
330
3
100
AcDbSymbolTableRecord
100
AcDbTextStyleTableRecord
  2
Arial
 70
     0
 40
0.0
 41
1.0
 50
0.0
 71
     0
 42
0.0
  3
Arial
  4

1001
ACAD
1000
Arial
1071
        0
  0
ENDTAB
  0
TABLE
  2
VIEW
  5
5
330
0
100
AcDbSymbolTable
 70
     0
  0
ENDTAB
  0
TABLE
  2
UCS
  5
6
330
0
100
AcDbSymbolTable
 70
     0
  0
ENDTAB
  0
TABLE
  2
APPID
  5
8
330
0
100
AcDbSymbolTable
 70
     1
  0
APPID
  5
16
330
8
100
AcDbSymbolTableRecord
100
AcDbRegAppTableRecord
  2
ACAD
 70
     0
  0
ENDTAB
  0
TABLE
  2
DIMSTYLE
  5
9
330
0
100
AcDbSymbolTable
 70
     1
100
AcDbDimStyleTable
  0
DIMSTYLE
105
18
330
9
100
AcDbSymbolTableRecord
100
AcDbDimStyleTableRecord
  2
Standard
 70
     0
178
     0
340
17
  0
ENDTAB
  0
TABLE
  2
BLOCK_RECORD
  5
1
330
0
100
AcDbSymbolTable
 70
     0
  0
BLOCK_RECORD
  5
A
330
1
100
AcDbSymbolTableRecord
100
AcDbBlockTableRecord
  2
*MODEL_SPACE
340
20
 70
     0
280
     1
281
     0
  0
BLOCK_RECORD
  5
B
330
1
100
AcDbSymbolTableRecord
100
AcDbBlockTableRecord
  2
*PAPER_SPACE
340
21
 70
     0
280
     1
281
     0
  0
ENDTAB
  0
ENDSEC
  0
SECTION
  2
BLOCKS
  0
BLOCK
  5
D
330
A
100
AcDbEntity
  8
0
100
AcDbBlockBegin
  2
*MODEL_SPACE
 70
     0
 10
0.0
 20
0.0
 30
0.0
  3
*MODEL_SPACE
  1

  0
ENDBLK
  5
E
330
A
100
AcDbEntity
  8
0
100
AcDbBlockEnd
  0
BLOCK
  5
F
330
B
100
AcDbEntity
 67
     1
  8
0
100
AcDbBlockBegin
  2
*PAPER_SPACE
 70
     0
 10
0.0
 20
0.0
 30
0.0
  3
*PAPER_SPACE
  1

  0
ENDBLK
  5
10
330
B
100
AcDbEntity
 67
     1
  8
0
100
AcDbBlockEnd
  0
ENDSEC
  0
SECTION
  2
ENTITIES
  0
LINE
  5
34
330
A
100
AcDbEntity
  8
0
  6
Continuous
 62
     7
370
    25
100
AcDbLine
 10
216.7247282159
 20
198.4065077511
 30
0.0
 11
207.5084029133
 21
204.2970219771
 31
0.0
  0
LINE
  5
35
330
A
100
AcDbEntity
  8
0
  6
Continuous
 62
     7
370
    25
100
AcDbLine
 10
198.9924177131
 20
202.7226901326
 30
0.0
 11
192.4911907328
 21
193.9265058644
 31
0.0
  0
SPLINE
  5
36
330
A
100
AcDbEntity
  8
0
  6
Continuous
 62
     7
370
    25
100
AcDbSpline
210
0.0
220
0.0
230
1.0
 70
     8
 71
     2
 72
    14
 73
    11
 74
     0
 42
0.000000001
 43
0.000001
 40
0.0
 40
0.0
 40
0.0
 40
1.0
 40
1.0
 40
2.0
 40
3.0
 40
4.0
 40
5.0
 40
6.0
 40
6.0
 40
7.0
 40
7.0
 40
7.0
 10
185.8619545808229
 20
184.95030503084
 30
0.0
 10
185.8566394325551
 20
184.9431520630586
 30
0.0
 10
185.8513242842874
 20
184.9359990952773
 30
0.0
 10
183.9024358640665
 20
182.3145590301797
 30
0.0
 10
181.8941999168235
 20
177.571151234899
 30
0.0
 10
180.423547754207
 20
172.0958235138112
 30
0.0
 10
180.5122716880779
 20
166.424546808669
 30
0.0
 10
180.8576846973976
 20
164.1771101414431
 30
0.0
 10
180.9301168021693
 20
163.8184461793622
 30
0.0
 10
180.9304185756842
 20
163.8169503950963
 30
0.0
 10
180.9307203491991
 20
163.8154546108305
 30
0.0
  0
SPLINE
  5
37
330
A
100
AcDbEntity
  8
0
  6
Continuous
 62
     7
370
    25
100
AcDbSpline
210
0.0
220
0.0
230
1.0
 70
     8
 71
     2
 72
    13
 73
    10
 74
     0
 42
0.000000001
 43
0.000001
 40
0.0
 40
0.0
 40
0.0
 40
1.0
 40
1.0
 40
2.0
 40
3.0
 40
4.0
 40
5.0
 40
5.0
 40
6.0
 40
6.0
 40
6.0
 10
238.2838799853128
 20
174.4184973766664
 30
0.0
 10
238.2825797215112
 20
174.4257692001539
 30
0.0
 10
238.2812794577095
 20
174.4330410236414
 30
0.0
 10
238.0204106279073
 20
175.8826737347779
 30
0.0
 10
236.4545328352431
 20
181.0858210925541
 30
0.0
 10
232.2451269212701
 20
187.4547055963651
 30
0.0
 10
227.9255700713693
 20
191.239819653608
 30
0.0
 10
226.1496062603185
 20
192.3813623315354
 30
0.0
 10
226.1384194796259
 20
192.3886290221041
 30
0.0
 10
226.1272326989332
 20
192.3958957126728
 30
0.0
  0
LINE
  5
38
330
A
100
AcDbEntity
  8
0
  6
Continuous
 62
     7
370
    25
100
AcDbLine
 10
222.8657459217
 20
194.4815429771
 30
0.0
 11
218.2591150074
 21
197.425821097
 31
0.0
  0
LINE
  5
39
330
A
100
AcDbEntity
  8
0
  6
Continuous
 62
     7
370
    25
100
AcDbLine
 10
191.4088291104
 20
192.4620665662
 30
0.0
 11
188.1592961127
 21
188.0654363424
 31
0.0
  0
LINE
  5
3A
330
A
100
AcDbEntity
  8
0
  6
Continuous
 62
     7
370
    25
100
AcDbLine
 10
226.1297592238
 20
192.395384323
 30
0.0
 11
224.4001327134
 21
193.5008563231
 31
0.0
  0
LINE
  5
3B
330
A
100
AcDbEntity
  8
0
  6
Continuous
 62
     7
370
    25
100
AcDbLine
 10
187.0769344901
 20
186.6009970443
 30
0.0
 11
185.8568501109
 21
184.9502183444
 31
0.0
  0
SPLINE
  5
3C
330
A
100
AcDbEntity
  8
0
  6
Continuous
 62
     7
370
    25
100
AcDbSpline
210
0.0
220
0.0
230
1.0
 70
     8
 71
     2
 72
    17
 73
    14
 74
     0
 42
0.000000001
 43
0.000001
 40
0.0
 40
0.0
 40
0.0
 40
1.0
 40
1.0
 40
2.0
 40
3.0
 40
4.0
 40
5.0
 40
6.0
 40
7.0
 40
8.0
 40
9.0
 40
9.0
 40
10.0
 40
10.0
 40
10.0
 10
207.5011114974073
 20
204.3010767530129
 30
0.0
 10
207.5009490240006
 20
204.3011877410229
 30
0.0
 10
207.5007865505939
 20
204.301298729033
 30
0.0
 10
207.1845194671501
 20
204.5047325588299
 30
0.0
 10
206.0825907500553
 20
205.0340885456141
 30
0.0
 10
204.580772699775
 20
205.3133704205437
 30
0.0
 10
203.3712944811084
 20
205.2763938058096
 30
0.0
 10
202.110805834445
 20
205.025285197314
 30
0.0
 10
200.8009349295922
 20
204.4171863259224
 30
0.0
 10
199.6835194857898
 20
203.5620878252263
 30
0.0
 10
199.1016804197752
 20
202.876674564405
 30
0.0
 10
198.9988601688665
 20
202.7293075768804
 30
0.0
 10
198.9985566315815
 20
202.728871816925
 30
0.0
 10
198.9982530942966
 20
202.7284360569695
 30
0.0
  0
LINE
  5
3D
330
A
100
AcDbEntity
  8
0
  6
Continuous
 62
     7
370
    25
100
AcDbLine
 10
180.9291707924
 20
163.8155968012
 30
0.0
 11
181.760792644
 21
159.3488236687
 31
0.0
  0
LINE
  5
3E
330
A
100
AcDbEntity
  8
0
  6
Continuous
 62
     7
370
    25
100
AcDbLine
 10
239.1080317299
 20
169.9504842593
 30
0.0
 11
238.2877408727
 21
174.4193521282
 31
0.0
  0
LINE
  5
3F
330
A
100
AcDbEntity
  8
0
  6
Continuous
 62
     7
370
    25
100
AcDbLine
 10
191.3973161549
 20
148.7796375776
 30
0.0
 11
192.8170184358
 21
141.1541909967
 31
0.0
  0
LINE
  5
40
330
A
100
AcDbEntity
  8
0
  6
Continuous
 62
     7
370
    25
100
AcDbLine
 10
235.2874428692
 20
149.0056069001
 30
0.0
 11
233.8870842822
 21
156.6346295081
 31
0.0
  0
LINE
  5
41
330
A
100
AcDbEntity
  8
0
  6
Continuous
 62
     7
370
    25
100
AcDbLine
 10
195.5280779612
 20
136.2526468871
 30
0.0
 11
198.4345378009
 21
133.3803044477
 31
0.0
  0
LINE
  5
42
330
A
100
AcDbEntity
  8
0
  6
Continuous
 62
     7
370
    25
100
AcDbLine
 10
232.8205023119
 20
139.7371636554
 30
0.0
 11
234.5079526025
 21
143.4587723675
 31
0.0
  0
POLYLINE
  5
43
330
A
100
AcDbEntity
  8
0
  6
Continuous
 62
     7
370
    25
100
AcDb2dPolyline
 66
     1
 10
0.0
 20
0.0
 30
0.0
 75
     5
  0
VERTEX
  5
44
330
43
100
AcDbEntity
  8
0
  6
Continuous
 62
     7
370
    25
100
AcDbVertex
100
AcDb2dVertex
 10
194.82882472
 20
183.6340302549
 30
0.0
  0
VERTEX
  5
45
330
43
100
AcDbEntity
  8
0
  6
Continuous
 62
     7
370
    25
100
AcDbVertex
100
AcDb2dVertex
 10
195.3280707037
 20
183.3672531652
 30
0.0
  0
VERTEX
  5
46
330
43
100
AcDbEntity
  8
0
  6
Continuous
 62
     7
370
    25
100
AcDbVertex
100
AcDb2dVertex
 10
195.8515195414
 20
183.1189774636
 30
0.0
  0
VERTEX
  5
47
330
43
100
AcDbEntity
  8
0
  6
Continuous
 62
     7
370
    25
100
AcDbVertex
100
AcDb2dVertex
 10
196.3979296703
 20
182.8897920327
 30
0.0
  0
VERTEX
  5
48
330
43
100
AcDbEntity
  8
0
  6
Continuous
 62
     7
370
    25
100
AcDbVertex
100
AcDb2dVertex
 10
196.9660050659
 20
182.6802404751
 30
0.0
  0
VERTEX
  5
49
330
43
100
AcDbEntity
  8
0
  6
Continuous
 62
     7
370
    25
100
AcDbVertex
100
AcDb2dVertex
 10
197.5543983163
 20
182.4908198238
 30
0.0
  0
VERTEX
  5
4A
330
43
100
AcDbEntity
  8
0
  6
Continuous
 62
     7
370
    25
100
AcDbVertex
100
AcDb2dVertex
 10
198.1617138175
 20
182.3219793637
 30
0.0
  0
VERTEX
  5
4B
330
43
100
AcDbEntity
  8
0
  6
Continuous
 62
     7
370
    25
100
AcDbVertex
100
AcDb2dVertex
 10
198.7865110844
 20
182.1741195658
 30
0.0
  0
VERTEX
  5
4C
330
43
100
AcDbEntity
  8
0
  6
Continuous
 62
     7
370
    25
100
AcDbVertex
100
AcDb2dVertex
 10
199.4273081668
 20
182.0475911371
 30
0.0
  0
VERTEX
  5
4D
330
43
100
AcDbEntity
  8
0
  6
Continuous
 62
     7
370
    25
100
AcDbVertex
100
AcDb2dVertex
 10
200.0825851649
 20
181.9426941891
 30
0.0
  0
VERTEX
  5
4E
330
43
100
AcDbEntity
  8
0
  6
Continuous
 62
     7
370
    25
100
AcDbVertex
100
AcDb2dVertex
 10
200.7507878339
 20
181.8596775258
 30
0.0
  0
VERTEX
  5
4F
330
43
100
AcDbEntity
  8
0
  6
Continuous
 62
     7
370
    25
100
AcDbVertex
100
AcDb2dVertex
 10
201.4303312711
 20
181.7987380535
 30
0.0
  0
VERTEX
  5
50
330
43
100
AcDbEntity
  8
0
  6
Continuous
 62
     7
370
    25
100
AcDbVertex
100
AcDb2dVertex
 10
202.1196036744
 20
181.7600203139
 30
0.0
  0
VERTEX
  5
51
330
43
100
AcDbEntity
  8
0
  6
Continuous
 62
     7
370
    25
100
AcDbVertex
100
AcDb2dVertex
 10
202.8169701659
 20
181.7436161412
 30
0.0
  0
VERTEX
  5
52
330
43
100
AcDbEntity
  8
0
  6
Continuous
 62
     7
370
    25
100
AcDbVertex
100
AcDb2dVertex
 10
203.5207766693
 20
181.7495644443
 30
0.0
  0
VERTEX
  5
53
330
43
100
AcDbEntity
  8
0
  6
Continuous
 62
     7
370
    25
100
AcDbVertex
100
AcDb2dVertex
 10
204.2293538333
 20
181.7778511145
 30
0.0
  0
VERTEX
  5
54
330
43
100
AcDbEntity
  8
0
  6
Continuous
 62
     7
370
    25
100
AcDbVertex
100
AcDb2dVertex
 10
204.9410209911
 20
181.8284090589
 30
0.0
  0
VERTEX
  5
55
330
43
100
AcDbEntity
  8
0
  6
Continuous
 62
     7
370
    25
100
AcDbVertex
100
AcDb2dVertex
 10
205.654090147
 20
181.9011183598
 30
0.0
  0
VERTEX
  5
56
330
43
100
AcDbEntity
  8
0
  6
Continuous
 62
     7
370
    25
100
AcDbVertex
100
AcDb2dVertex
 10
206.3668699796
 20
181.9958065585
 30
0.0
  0
VERTEX
  5
57
330
43
100
AcDbEntity
  8
0
  6
Continuous
 62
     7
370
    25
100
AcDbVertex
100
AcDb2dVertex
 10
207.0776698539
 20
182.1122490652
 30
0.0
  0
VERTEX
  5
58
330
43
100
AcDbEntity
  8
0
  6
Continuous
 62
     7
370
    25
100
AcDbVertex
100
AcDb2dVertex
 10
207.7848038312
 20
182.2501696912
 30
0.0
  0
VERTEX
  5
59
330
43
100
AcDbEntity
  8
0
  6
Continuous
 62
     7
370
    25
100
AcDbVertex
100
AcDb2dVertex
 10
208.4865946678
 20
182.4092413039
 30
0.0
  0
VERTEX
  5
5A
330
43
100
AcDbEntity
  8
0
  6
Continuous
 62
     7
370
    25
100
AcDbVertex
100
AcDb2dVertex
 10
209.1813777933
 20
182.5890866031
 30
0.0
  0
VERTEX
  5
5B
330
43
100
AcDbEntity
  8
0
  6
Continuous
 62
     7
370
    25
100
AcDbVertex
100
AcDb2dVertex
 10
209.867505259
 20
182.7892790156
 30
0.0
  0
VERTEX
  5
5C
330
43
100
AcDbEntity
  8
0
  6
Continuous
 62
     7
370
    25
100
AcDbVertex
100
AcDb2dVertex
 10
210.5433496463
 20
183.009343707
 30
0.0
  0
VERTEX
  5
5D
330
43
100
AcDbEntity
  8
0
  6
Continuous
 62
     7
370
    25
100
AcDbVertex
100
AcDb2dVertex
 10
211.207307927
 20
183.2487587083
 30
0.0
  0
VERTEX
  5
5E
330
43
100
AcDbEntity
  8
0
  6
Continuous
 62
     7
370
    25
100
AcDbVertex
100
AcDb2dVertex
 10
211.8578052653
 20
183.5069561535
 30
0.0
  0
VERTEX
  5
5F
330
43
100
AcDbEntity
  8
0
  6
Continuous
 62
     7
370
    25
100
AcDbVertex
100
AcDb2dVertex
 10
212.4932987536
 20
183.7833236269
 30
0.0
  0
VERTEX
  5
60
330
43
100
AcDbEntity
  8
0
  6
Continuous
 62
     7
370
    25
100
AcDbVertex
100
AcDb2dVertex
 10
213.1122810713
 20
184.0772056152
 30
0.0
  0
VERTEX
  5
61
330
43
100
AcDbEntity
  8
0
  6
Continuous
 62
     7
370
    25
100
AcDbVertex
100
AcDb2dVertex
 10
213.713284061
 20
184.3879050629
 30
0.0
  0
VERTEX
  5
62
330
43
100
AcDbEntity
  8
0
  6
Continuous
 62
     7
370
    25
100
AcDbVertex
100
AcDb2dVertex
 10
214.2948822098
 20
184.7146850253
 30
0.0
  0
VERTEX
  5
63
330
43
100
AcDbEntity
  8
0
  6
Continuous
 62
     7
370
    25
100
AcDbVertex
100
AcDb2dVertex
 10
214.8556960312
 20
185.0567704163
 30
0.0
  0
VERTEX
  5
64
330
43
100
AcDbEntity
  8
0
  6
Continuous
 62
     7
370
    25
100
AcDbVertex
100
AcDb2dVertex
 10
215.3943953368
 20
185.4133498472
 30
0.0
  0
VERTEX
  5
65
330
43
100
AcDbEntity
  8
0
  6
Continuous
 62
     7
370
    25
100
AcDbVertex
100
AcDb2dVertex
 10
215.9097023914
 20
185.783577551
 30
0.0
  0
VERTEX
  5
66
330
43
100
AcDbEntity
  8
0
  6
Continuous
 62
     7
370
    25
100
AcDbVertex
100
AcDb2dVertex
 10
216.4003949436
 20
186.1665753884
 30
0.0
  0
VERTEX
  5
67
330
43
100
AcDbEntity
  8
0
  6
Continuous
 62
     7
370
    25
100
AcDbVertex
100
AcDb2dVertex
 10
216.8653091247
 20
186.561434931
 30
0.0
  0
VERTEX
  5
68
330
43
100
AcDbEntity
  8
0
  6
Continuous
 62
     7
370
    25
100
AcDbVertex
100
AcDb2dVertex
 10
217.3033422099
 20
186.9672196156
 30
0.0
  0
VERTEX
  5
69
330
43
100
AcDbEntity
  8
0
  6
Continuous
 62
     7
370
    25
100
AcDbVertex
100
AcDb2dVertex
 10
217.7134552329
 20
187.3829669655
 30
0.0
  0
VERTEX
  5
6A
330
43
100
AcDbEntity
  8
0
  6
Continuous
 62
     7
370
    25
100
AcDbVertex
100
AcDb2dVertex
 10
218.094675451
 20
187.8076908742
 30
0.0
  0
VERTEX
  5
6B
330
43
100
AcDbEntity
  8
0
  6
Continuous
 62
     7
370
    25
100
AcDbVertex
100
AcDb2dVertex
 10
218.446098652
 20
188.2403839434
 30
0.0
  0
VERTEX
  5
6C
330
43
100
AcDbEntity
  8
0
  6
Continuous
 62
     7
370
    25
100
AcDbVertex
100
AcDb2dVertex
 10
218.7668912988
 20
188.6800198729
 30
0.0
  0
VERTEX
  5
6D
330
43
100
AcDbEntity
  8
0
  6
Continuous
 62
     7
370
    25
100
AcDbVertex
100
AcDb2dVertex
 10
219.0562925067
 20
189.125555895
 30
0.0
  0
VERTEX
  5
6E
330
43
100
AcDbEntity
  8
0
  6
Continuous
 62
     7
370
    25
100
AcDbVertex
100
AcDb2dVertex
 10
219.3136158481
 20
189.5759352473
 30
0.0
  0
VERTEX
  5
6F
330
43
100
AcDbEntity
  8
0
  6
Continuous
 62
     7
370
    25
100
AcDbVertex
100
AcDb2dVertex
 10
219.5382509804
 20
190.0300896798
 30
0.0
  0
VERTEX
  5
70
330
43
100
AcDbEntity
  8
0
  6
Continuous
 62
     7
370
    25
100
AcDbVertex
100
AcDb2dVertex
 10
219.7296650939
 20
190.4869419884
 30
0.0
  0
VERTEX
  5
71
330
43
100
AcDbEntity
  8
0
  6
Continuous
 62
     7
370
    25
100
AcDbVertex
100
AcDb2dVertex
 10
219.8874041755
 20
190.9454085698
 30
0.0
  0
VERTEX
  5
72
330
43
100
AcDbEntity
  8
0
  6
Continuous
 62
     7
370
    25
100
AcDbVertex
100
AcDb2dVertex
 10
220.0110940854
 20
191.4044019921
 30
0.0
  0
VERTEX
  5
73
330
43
100
AcDbEntity
  8
0
  6
Continuous
 62
     7
370
    25
100
AcDbVertex
100
AcDb2dVertex
 10
220.1004414449
 20
191.8628335734
 30
0.0
  0
VERTEX
  5
74
330
43
100
AcDbEntity
  8
0
  6
Continuous
 62
     7
370
    25
100
AcDbVertex
100
AcDb2dVertex
 10
220.155234332
 20
192.3196159648
 30
0.0
  0
VERTEX
  5
75
330
43
100
AcDbEntity
  8
0
  6
Continuous
 62
     7
370
    25
100
AcDbVertex
100
AcDb2dVertex
 10
220.1753427839
 20
192.7736657289
 30
0.0
  0
VERTEX
  5
76
330
43
100
AcDbEntity
  8
0
  6
Continuous
 62
     7
370
    25
100
AcDbVertex
100
AcDb2dVertex
 10
220.1607191056
 20
193.2239059097
 30
0.0
  0
VERTEX
  5
77
330
43
100
AcDbEntity
  8
0
  6
Continuous
 62
     7
370
    25
100
AcDbVertex
100
AcDb2dVertex
 10
220.1113979829
 20
193.6692685874
 30
0.0
  0
VERTEX
  5
78
330
43
100
AcDbEntity
  8
0
  6
Continuous
 62
     7
370
    25
100
AcDbVertex
100
AcDb2dVertex
 10
220.0274964
 20
194.1086974109
 30
0.0
  0
VERTEX
  5
79
330
43
100
AcDbEntity
  8
0
  6
Continuous
 62
     7
370
    25
100
AcDbVertex
100
AcDb2dVertex
 10
219.9092133622
 20
194.5411501035
 30
0.0
  0
VERTEX
  5
7A
330
43
100
AcDbEntity
  8
0
  6
Continuous
 62
     7
370
    25
100
AcDbVertex
100
AcDb2dVertex
 10
219.7568294238
 20
194.9656009352
 30
0.0
  0
VERTEX
  5
7B
330
43
100
AcDbEntity
  8
0
  6
Continuous
 62
     7
370
    25
100
AcDbVertex
100
AcDb2dVertex
 10
219.5707060227
 20
195.3810431556
 30
0.0
  0
VERTEX
  5
7C
330
43
100
AcDbEntity
  8
0
  6
Continuous
 62
     7
370
    25
100
AcDbVertex
100
AcDb2dVertex
 10
219.351284623
 20
195.7864913816
 30
0.0
  0
VERTEX
  5
7D
330
43
100
AcDbEntity
  8
0
  6
Continuous
 62
     7
370
    25
100
AcDbVertex
100
AcDb2dVertex
 10
219.099085668
 20
196.1809839349
 30
0.0
  0
VERTEX
  5
7E
330
43
100
AcDbEntity
  8
0
  6
Continuous
 62
     7
370
    25
100
AcDbVertex
100
AcDb2dVertex
 10
218.8147073459
 20
196.5635851225
 30
0.0
  0
VERTEX
  5
7F
330
43
100
AcDbEntity
  8
0
  6
Continuous
 62
     7
370
    25
100
AcDbVertex
100
AcDb2dVertex
 10
218.4988241704
 20
196.9333874569
 30
0.0
  0
VERTEX
  5
80
330
43
100
AcDbEntity
  8
0
  6
Continuous
 62
     7
370
    25
100
AcDbVertex
100
AcDb2dVertex
 10
218.1521853818
 20
197.2895138078
 30
0.0
  0
VERTEX
  5
81
330
43
100
AcDbEntity
  8
0
  6
Continuous
 62
     7
370
    25
100
AcDbVertex
100
AcDb2dVertex
 10
217.7756131688
 20
197.6311194827
 30
0.0
  0
VERTEX
  5
82
330
43
100
AcDbEntity
  8
0
  6
Continuous
 62
     7
370
    25
100
AcDbVertex
100
AcDb2dVertex
 10
217.3700007191
 20
197.9573942307
 30
0.0
  0
VERTEX
  5
83
330
43
100
AcDbEntity
  8
0
  6
Continuous
 62
     7
370
    25
100
AcDbVertex
100
AcDb2dVertex
 10
216.9363101007
 20
198.2675641643
 30
0.0
  0
VERTEX
  5
84
330
43
100
AcDbEntity
  8
0
  6
Continuous
 62
     7
370
    25
100
AcDbVertex
100
AcDb2dVertex
 10
216.7247282159
 20
198.4065077511
 30
0.0
  0
SEQEND
  5
85
330
43
100
AcDbEntity
  8
0
  6
Continuous
 62
     7
370
    25
  0
POLYLINE
  5
86
330
A
100
AcDbEntity
  8
0
  6
Continuous
 62
     7
370
    25
100
AcDb2dPolyline
 66
     1
 10
0.0
 20
0.0
 30
0.0
 75
     5
  0
VERTEX
  5
87
330
86
100
AcDbEntity
  8
0
  6
Continuous
 62
     7
370
    25
100
AcDbVertex
100
AcDb2dVertex
 10
192.4911907328
 20
193.9265058644
 30
0.0
  0
VERTEX
  5
88
330
86
100
AcDbEntity
  8
0
  6
Continuous
 62
     7
370
    25
100
AcDbVertex
100
AcDb2dVertex
 10
192.4538470725
 20
193.8756554829
 30
0.0
  0
VERTEX
  5
89
330
86
100
AcDbEntity
  8
0
  6
Continuous
 62
     7
370
    25
100
AcDbVertex
100
AcDb2dVertex
 10
192.1486596479
 20
193.4329382281
 30
0.0
  0
VERTEX
  5
8A
330
86
100
AcDbEntity
  8
0
  6
Continuous
 62
     7
370
    25
100
AcDbVertex
100
AcDb2dVertex
 10
191.875216289
 20
192.9848476686
 30
0.0
  0
VERTEX
  5
8B
330
86
100
AcDbEntity
  8
0
  6
Continuous
 62
     7
370
    25
100
AcDbVertex
100
AcDb2dVertex
 10
191.6341655733
 20
192.5324466257
 30
0.0
  0
VERTEX
  5
8C
330
86
100
AcDbEntity
  8
0
  6
Continuous
 62
     7
370
    25
100
AcDbVertex
100
AcDb2dVertex
 10
191.4260792466
 20
192.0768081446
 30
0.0
  0
VERTEX
  5
8D
330
86
100
AcDbEntity
  8
0
  6
Continuous
 62
     7
370
    25
100
AcDbVertex
100
AcDb2dVertex
 10
191.2514508665
 20
191.6190129495
 30
0.0
  0
VERTEX
  5
8E
330
86
100
AcDbEntity
  8
0
  6
Continuous
 62
     7
370
    25
100
AcDbVertex
100
AcDb2dVertex
 10
191.1106946323
 20
191.16014688
 30
0.0
  0
VERTEX
  5
8F
330
86
100
AcDbEntity
  8
0
  6
Continuous
 62
     7
370
    25
100
AcDbVertex
100
AcDb2dVertex
 10
191.0041444022
 20
190.7012983157
 30
0.0
  0
VERTEX
  5
90
330
86
100
AcDbEntity
  8
0
  6
Continuous
 62
     7
370
    25
100
AcDbVertex
100
AcDb2dVertex
 10
190.9320529016
 20
190.2435555949
 30
0.0
  0
VERTEX
  5
91
330
86
100
AcDbEntity
  8
0
  6
Continuous
 62
     7
370
    25
100
AcDbVertex
100
AcDb2dVertex
 10
190.8945911236
 20
189.7880044325
 30
0.0
  0
VERTEX
  5
92
330
86
100
AcDbEntity
  8
0
  6
Continuous
 62
     7
370
    25
100
AcDbVertex
100
AcDb2dVertex
 10
190.8918479233
 20
189.3357253456
 30
0.0
  0
VERTEX
  5
93
330
86
100
AcDbEntity
  8
0
  6
Continuous
 62
     7
370
    25
100
AcDbVertex
100
AcDb2dVertex
 10
190.9238298074
 20
188.8877910903
 30
0.0
  0
VERTEX
  5
94
330
86
100
AcDbEntity
  8
0
  6
Continuous
 62
     7
370
    25
100
AcDbVertex
100
AcDb2dVertex
 10
190.9904609184
 20
188.4452641172
 30
0.0
  0
VERTEX
  5
95
330
86
100
AcDbEntity
  8
0
  6
Continuous
 62
     7
370
    25
100
AcDbVertex
100
AcDb2dVertex
 10
191.0915832145
 20
188.0091940512
 30
0.0
  0
VERTEX
  5
96
330
86
100
AcDbEntity
  8
0
  6
Continuous
 62
     7
370
    25
100
AcDbVertex
100
AcDb2dVertex
 10
191.226956845
 20
187.5806152025
 30
0.0
  0
VERTEX
  5
97
330
86
100
AcDbEntity
  8
0
  6
Continuous
 62
     7
370
    25
100
AcDbVertex
100
AcDb2dVertex
 10
191.3962607184
 20
187.1605441127
 30
0.0
  0
VERTEX
  5
98
330
86
100
AcDbEntity
  8
0
  6
Continuous
 62
     7
370
    25
100
AcDbVertex
100
AcDb2dVertex
 10
191.5990932648
 20
186.749977144
 30
0.0
  0
VERTEX
  5
99
330
86
100
AcDbEntity
  8
0
  6
Continuous
 62
     7
370
    25
100
AcDbVertex
100
AcDb2dVertex
 10
191.8349733877
 20
186.3498881159
 30
0.0
  0
VERTEX
  5
9A
330
86
100
AcDbEntity
  8
0
  6
Continuous
 62
     7
370
    25
100
AcDbVertex
100
AcDb2dVertex
 10
192.1033416055
 20
185.9612259954
 30
0.0
  0
VERTEX
  5
9B
330
86
100
AcDbEntity
  8
0
  6
Continuous
 62
     7
370
    25
100
AcDbVertex
100
AcDb2dVertex
 10
192.4035613785
 20
185.5849126461
 30
0.0
  0
VERTEX
  5
9C
330
86
100
AcDbEntity
  8
0
  6
Continuous
 62
     7
370
    25
100
AcDbVertex
100
AcDb2dVertex
 10
192.7349206186
 20
185.2218406417
 30
0.0
  0
VERTEX
  5
9D
330
86
100
AcDbEntity
  8
0
  6
Continuous
 62
     7
370
    25
100
AcDbVertex
100
AcDb2dVertex
 10
193.0966333782
 20
184.8728711489
 30
0.0
  0
VERTEX
  5
9E
330
86
100
AcDbEntity
  8
0
  6
Continuous
 62
     7
370
    25
100
AcDbVertex
100
AcDb2dVertex
 10
193.4878417146
 20
184.5388318847
 30
0.0
  0
VERTEX
  5
9F
330
86
100
AcDbEntity
  8
0
  6
Continuous
 62
     7
370
    25
100
AcDbVertex
100
AcDb2dVertex
 10
193.9076177249
 20
184.2205151534
 30
0.0
  0
VERTEX
  5
A0
330
86
100
AcDbEntity
  8
0
  6
Continuous
 62
     7
370
    25
100
AcDbVertex
100
AcDb2dVertex
 10
194.3549657467
 20
183.918675967
 30
0.0
  0
VERTEX
  5
A1
330
86
100
AcDbEntity
  8
0
  6
Continuous
 62
     7
370
    25
100
AcDbVertex
100
AcDb2dVertex
 10
194.82882472
 20
183.6340302549
 30
0.0
  0
SEQEND
  5
A2
330
86
100
AcDbEntity
  8
0
  6
Continuous
 62
     7
370
    25
  0
POLYLINE
  5
A3
330
A
100
AcDbEntity
  8
0
  6
Continuous
 62
     7
370
    25
100
AcDb2dPolyline
 66
     1
 10
0.0
 20
0.0
 30
0.0
 75
     5
  0
VERTEX
  5
A4
330
A3
100
AcDbEntity
  8
0
  6
Continuous
 62
     7
370
    25
100
AcDbVertex
100
AcDb2dVertex
 10
191.5071761615
 20
173.3249021387
 30
0.0
  0
VERTEX
  5
A5
330
A3
100
AcDbEntity
  8
0
  6
Continuous
 62
     7
370
    25
100
AcDbVertex
100
AcDb2dVertex
 10
192.1037049049
 20
173.0030787826
 30
0.0
  0
VERTEX
  5
A6
330
A3
100
AcDbEntity
  8
0
  6
Continuous
 62
     7
370
    25
100
AcDbVertex
100
AcDb2dVertex
 10
192.7247541964
 20
172.6997486593
 30
0.0
  0
VERTEX
  5
A7
330
A3
100
AcDbEntity
  8
0
  6
Continuous
 62
     7
370
    25
100
AcDbVertex
100
AcDb2dVertex
 10
193.3692903607
 20
172.4154166318
 30
0.0
  0
VERTEX
  5
A8
330
A3
100
AcDbEntity
  8
0
  6
Continuous
 62
     7
370
    25
100
AcDbVertex
100
AcDb2dVertex
 10
194.0362406309
 20
172.1505559428
 30
0.0
  0
VERTEX
  5
A9
330
A3
100
AcDbEntity
  8
0
  6
Continuous
 62
     7
370
    25
100
AcDbVertex
100
AcDb2dVertex
 10
194.7244949341
 20
171.9056074266
 30
0.0
  0
VERTEX
  5
AA
330
A3
100
AcDbEntity
  8
0
  6
Continuous
 62
     7
370
    25
100
AcDbVertex
100
AcDb2dVertex
 10
195.432907739
 20
171.6809787759
 30
0.0
  0
VERTEX
  5
AB
330
A3
100
AcDbEntity
  8
0
  6
Continuous
 62
     7
370
    25
100
AcDbVertex
100
AcDb2dVertex
 10
196.1602999624
 20
171.477043863
 30
0.0
  0
VERTEX
  5
AC
330
A3
100
AcDbEntity
  8
0
  6
Continuous
 62
     7
370
    25
100
AcDbVertex
100
AcDb2dVertex
 10
196.9054609316
 20
171.2941421173
 30
0.0
  0
VERTEX
  5
AD
330
A3
100
AcDbEntity
  8
0
  6
Continuous
 62
     7
370
    25
100
AcDbVertex
100
AcDb2dVertex
 10
197.6671503999
 20
171.1325779608
 30
0.0
  0
VERTEX
  5
AE
330
A3
100
AcDbEntity
  8
0
  6
Continuous
 62
     7
370
    25
100
AcDbVertex
100
AcDb2dVertex
 10
198.4441006103
 20
170.9926203011
 30
0.0
  0
VERTEX
  5
AF
330
A3
100
AcDbEntity
  8
0
  6
Continuous
 62
     7
370
    25
100
AcDbVertex
100
AcDb2dVertex
 10
199.2350184057
 20
170.8745020839
 30
0.0
  0
VERTEX
  5
B0
330
A3
100
AcDbEntity
  8
0
  6
Continuous
 62
     7
370
    25
100
AcDbVertex
100
AcDb2dVertex
 10
200.0385873816
 20
170.7784199053
 30
0.0
  0
VERTEX
  5
B1
330
A3
100
AcDbEntity
  8
0
  6
Continuous
 62
     7
370
    25
100
AcDbVertex
100
AcDb2dVertex
 10
200.8534700768
 20
170.7045336845
 30
0.0
  0
VERTEX
  5
B2
330
A3
100
AcDbEntity
  8
0
  6
Continuous
 62
     7
370
    25
100
AcDbVertex
100
AcDb2dVertex
 10
201.6783101994
 20
170.652966398
 30
0.0
  0
VERTEX
  5
B3
330
A3
100
AcDbEntity
  8
0
  6
Continuous
 62
     7
370
    25
100
AcDbVertex
100
AcDb2dVertex
 10
202.5117348844
 20
170.6238038744
 30
0.0
  0
VERTEX
  5
B4
330
A3
100
AcDbEntity
  8
0
  6
Continuous
 62
     7
370
    25
100
AcDbVertex
100
AcDb2dVertex
 10
203.3523569786
 20
170.6170946519
 30
0.0
  0
VERTEX
  5
B5
330
A3
100
AcDbEntity
  8
0
  6
Continuous
 62
     7
370
    25
100
AcDbVertex
100
AcDb2dVertex
 10
204.1987773497
 20
170.6328498972
 30
0.0
  0
VERTEX
  5
B6
330
A3
100
AcDbEntity
  8
0
  6
Continuous
 62
     7
370
    25
100
AcDbVertex
100
AcDb2dVertex
 10
205.0495872144
 20
170.6710433873
 30
0.0
  0
VERTEX
  5
B7
330
A3
100
AcDbEntity
  8
0
  6
Continuous
 62
     7
370
    25
100
AcDbVertex
100
AcDb2dVertex
 10
205.9033704836
 20
170.7316115529
 30
0.0
  0
VERTEX
  5
B8
330
A3
100
AcDbEntity
  8
0
  6
Continuous
 62
     7
370
    25
100
AcDbVertex
100
AcDb2dVertex
 10
206.7587061193
 20
170.8144535843
 30
0.0
  0
VERTEX
  5
B9
330
A3
100
AcDbEntity
  8
0
  6
Continuous
 62
     7
370
    25
100
AcDbVertex
100
AcDb2dVertex
 10
207.6141704999
 20
170.9194315992
 30
0.0
  0
VERTEX
  5
BA
330
A3
100
AcDbEntity
  8
0
  6
Continuous
 62
     7
370
    25
100
AcDbVertex
100
AcDb2dVertex
 10
208.4683397892
 20
171.0463708718
 30
0.0
  0
VERTEX
  5
BB
330
A3
100
AcDbEntity
  8
0
  6
Continuous
 62
     7
370
    25
100
AcDbVertex
100
AcDb2dVertex
 10
209.3197923068
 20
171.1950601245
 30
0.0
  0
VERTEX
  5
BC
330
A3
100
AcDbEntity
  8
0
  6
Continuous
 62
     7
370
    25
100
AcDbVertex
100
AcDb2dVertex
 10
210.167110894
 20
171.3652518785
 30
0.0
  0
VERTEX
  5
BD
330
A3
100
AcDbEntity
  8
0
  6
Continuous
 62
     7
370
    25
100
AcDbVertex
100
AcDb2dVertex
 10
211.0088852726
 20
171.5566628665
 30
0.0
  0
VERTEX
  5
BE
330
A3
100
AcDbEntity
  8
0
  6
Continuous
 62
     7
370
    25
100
AcDbVertex
100
AcDb2dVertex
 10
211.8437143923
 20
171.7689745039
 30
0.0
  0
VERTEX
  5
BF
330
A3
100
AcDbEntity
  8
0
  6
Continuous
 62
     7
370
    25
100
AcDbVertex
100
AcDb2dVertex
 10
212.6702087623
 20
172.0018334187
 30
0.0
  0
VERTEX
  5
C0
330
A3
100
AcDbEntity
  8
0
  6
Continuous
 62
     7
370
    25
100
AcDbVertex
100
AcDb2dVertex
 10
213.4869927643
 20
172.2548520404
 30
0.0
  0
VERTEX
  5
C1
330
A3
100
AcDbEntity
  8
0
  6
Continuous
 62
     7
370
    25
100
AcDbVertex
100
AcDb2dVertex
 10
214.2927069421
 20
172.5276092444
 30
0.0
  0
VERTEX
  5
C2
330
A3
100
AcDbEntity
  8
0
  6
Continuous
 62
     7
370
    25
100
AcDbVertex
100
AcDb2dVertex
 10
215.0860102638
 20
172.8196510533
 30
0.0
  0
VERTEX
  5
C3
330
A3
100
AcDbEntity
  8
0
  6
Continuous
 62
     7
370
    25
100
AcDbVertex
100
AcDb2dVertex
 10
215.8655823544
 20
173.1304913924
 30
0.0
  0
VERTEX
  5
C4
330
A3
100
AcDbEntity
  8
0
  6
Continuous
 62
     7
370
    25
100
AcDbVertex
100
AcDb2dVertex
 10
216.630125693
 20
173.4596128984
 30
0.0
  0
VERTEX
  5
C5
330
A3
100
AcDbEntity
  8
0
  6
Continuous
 62
     7
370
    25
100
AcDbVertex
100
AcDb2dVertex
 10
217.3783677728
 20
173.8064677812
 30
0.0
  0
VERTEX
  5
C6
330
A3
100
AcDbEntity
  8
0
  6
Continuous
 62
     7
370
    25
100
AcDbVertex
100
AcDb2dVertex
 10
218.1090632185
 20
174.1704787351
 30
0.0
  0
VERTEX
  5
C7
330
A3
100
AcDbEntity
  8
0
  6
Continuous
 62
     7
370
    25
100
AcDbVertex
100
AcDb2dVertex
 10
218.8209958599
 20
174.5510398997
 30
0.0
  0
VERTEX
  5
C8
330
A3
100
AcDbEntity
  8
0
  6
Continuous
 62
     7
370
    25
100
AcDbVertex
100
AcDb2dVertex
 10
219.5129807552
 20
174.9475178686
 30
0.0
  0
VERTEX
  5
C9
330
A3
100
AcDbEntity
  8
0
  6
Continuous
 62
     7
370
    25
100
AcDbVertex
100
AcDb2dVertex
 10
220.1838661638
 20
175.3592527432
 30
0.0
  0
VERTEX
  5
CA
330
A3
100
AcDbEntity
  8
0
  6
Continuous
 62
     7
370
    25
100
AcDbVertex
100
AcDb2dVertex
 10
220.8325354633
 20
175.7855592316
 30
0.0
  0
VERTEX
  5
CB
330
A3
100
AcDbEntity
  8
0
  6
Continuous
 62
     7
370
    25
100
AcDbVertex
100
AcDb2dVertex
 10
221.4579090076
 20
176.2257277886
 30
0.0
  0
VERTEX
  5
CC
330
A3
100
AcDbEntity
  8
0
  6
Continuous
 62
     7
370
    25
100
AcDbVertex
100
AcDb2dVertex
 10
222.0589459241
 20
176.6790257972
 30
0.0
  0
VERTEX
  5
CD
330
A3
100
AcDbEntity
  8
0
  6
Continuous
 62
     7
370
    25
100
AcDbVertex
100
AcDb2dVertex
 10
222.6346458462
 20
177.1446987874
 30
0.0
  0
VERTEX
  5
CE
330
A3
100
AcDbEntity
  8
0
  6
Continuous
 62
     7
370
    25
100
AcDbVertex
100
AcDb2dVertex
 10
223.1840505782
 20
177.6219716927
 30
0.0
  0
VERTEX
  5
CF
330
A3
100
AcDbEntity
  8
0
  6
Continuous
 62
     7
370
    25
100
AcDbVertex
100
AcDb2dVertex
 10
223.7062456902
 20
178.1100501393
 30
0.0
  0
VERTEX
  5
D0
330
A3
100
AcDbEntity
  8
0
  6
Continuous
 62
     7
370
    25
100
AcDbVertex
100
AcDb2dVertex
 10
224.2003620399
 20
178.6081217688
 30
0.0
  0
VERTEX
  5
D1
330
A3
100
AcDbEntity
  8
0
  6
Continuous
 62
     7
370
    25
100
AcDbVertex
100
AcDb2dVertex
 10
224.6655772194
 20
179.1153575902
 30
0.0
  0
VERTEX
  5
D2
330
A3
100
AcDbEntity
  8
0
  6
Continuous
 62
     7
370
    25
100
AcDbVertex
100
AcDb2dVertex
 10
225.101116924
 20
179.6309133595
 30
0.0
  0
VERTEX
  5
D3
330
A3
100
AcDbEntity
  8
0
  6
Continuous
 62
     7
370
    25
100
AcDbVertex
100
AcDb2dVertex
 10
225.5062562408
 20
180.153930985
 30
0.0
  0
VERTEX
  5
D4
330
A3
100
AcDbEntity
  8
0
  6
Continuous
 62
     7
370
    25
100
AcDbVertex
100
AcDb2dVertex
 10
225.8803208554
 20
180.6835399554
 30
0.0
  0
VERTEX
  5
D5
330
A3
100
AcDbEntity
  8
0
  6
Continuous
 62
     7
370
    25
100
AcDbVertex
100
AcDb2dVertex
 10
226.2226881742
 20
181.218858789
 30
0.0
  0
VERTEX
  5
D6
330
A3
100
AcDbEntity
  8
0
  6
Continuous
 62
     7
370
    25
100
AcDbVertex
100
AcDb2dVertex
 10
226.5327883605
 20
181.7589965003
 30
0.0
  0
VERTEX
  5
D7
330
A3
100
AcDbEntity
  8
0
  6
Continuous
 62
     7
370
    25
100
AcDbVertex
100
AcDb2dVertex
 10
226.8101052833
 20
182.3030540834
 30
0.0
  0
VERTEX
  5
D8
330
A3
100
AcDbEntity
  8
0
  6
Continuous
 62
     7
370
    25
100
AcDbVertex
100
AcDb2dVertex
 10
227.0541773757
 20
182.8501260082
 30
0.0
  0
VERTEX
  5
D9
330
A3
100
AcDbEntity
  8
0
  6
Continuous
 62
     7
370
    25
100
AcDbVertex
100
AcDb2dVertex
 10
227.264598404
 20
183.3993017274
 30
0.0
  0
VERTEX
  5
DA
330
A3
100
AcDbEntity
  8
0
  6
Continuous
 62
     7
370
    25
100
AcDbVertex
100
AcDb2dVertex
 10
227.4410181431
 20
183.9496671923
 30
0.0
  0
VERTEX
  5
DB
330
A3
100
AcDbEntity
  8
0
  6
Continuous
 62
     7
370
    25
100
AcDbVertex
100
AcDb2dVertex
 10
227.5831429598
 20
184.5003063739
 30
0.0
  0
VERTEX
  5
DC
330
A3
100
AcDbEntity
  8
0
  6
Continuous
 62
     7
370
    25
100
AcDbVertex
100
AcDb2dVertex
 10
227.6907363013
 20
185.0503027875
 30
0.0
  0
VERTEX
  5
DD
330
A3
100
AcDbEntity
  8
0
  6
Continuous
 62
     7
370
    25
100
AcDbVertex
100
AcDb2dVertex
 10
227.7636190891
 20
185.5987410185
 30
0.0
  0
VERTEX
  5
DE
330
A3
100
AcDbEntity
  8
0
  6
Continuous
 62
     7
370
    25
100
AcDbVertex
100
AcDb2dVertex
 10
227.801670017
 20
186.1447082455
 30
0.0
  0
VERTEX
  5
DF
330
A3
100
AcDbEntity
  8
0
  6
Continuous
 62
     7
370
    25
100
AcDbVertex
100
AcDb2dVertex
 10
227.804825753
 20
186.6872957599
 30
0.0
  0
VERTEX
  5
E0
330
A3
100
AcDbEntity
  8
0
  6
Continuous
 62
     7
370
    25
100
AcDbVertex
100
AcDb2dVertex
 10
227.7730810447
 20
187.2256004784
 30
0.0
  0
VERTEX
  5
E1
330
A3
100
AcDbEntity
  8
0
  6
Continuous
 62
     7
370
    25
100
AcDbVertex
100
AcDb2dVertex
 10
227.7064887281
 20
187.7587264459
 30
0.0
  0
VERTEX
  5
E2
330
A3
100
AcDbEntity
  8
0
  6
Continuous
 62
     7
370
    25
100
AcDbVertex
100
AcDb2dVertex
 10
227.6051596394
 20
188.2857863269
 30
0.0
  0
VERTEX
  5
E3
330
A3
100
AcDbEntity
  8
0
  6
Continuous
 62
     7
370
    25
100
AcDbVertex
100
AcDb2dVertex
 10
227.469262431
 20
188.8059028821
 30
0.0
  0
VERTEX
  5
E4
330
A3
100
AcDbEntity
  8
0
  6
Continuous
 62
     7
370
    25
100
AcDbVertex
100
AcDb2dVertex
 10
227.2990232902
 20
189.3182104289
 30
0.0
  0
VERTEX
  5
E5
330
A3
100
AcDbEntity
  8
0
  6
Continuous
 62
     7
370
    25
100
AcDbVertex
100
AcDb2dVertex
 10
227.0947255635
 20
189.821856282
 30
0.0
  0
VERTEX
  5
E6
330
A3
100
AcDbEntity
  8
0
  6
Continuous
 62
     7
370
    25
100
AcDbVertex
100
AcDb2dVertex
 10
226.8567092841
 20
190.3160021726
 30
0.0
  0
VERTEX
  5
E7
330
A3
100
AcDbEntity
  8
0
  6
Continuous
 62
     7
370
    25
100
AcDbVertex
100
AcDb2dVertex
 10
226.5853706067
 20
190.7998256435
 30
0.0
  0
VERTEX
  5
E8
330
A3
100
AcDbEntity
  8
0
  6
Continuous
 62
     7
370
    25
100
AcDbVertex
100
AcDb2dVertex
 10
226.2811611478
 20
191.2725214183
 30
0.0
  0
VERTEX
  5
E9
330
A3
100
AcDbEntity
  8
0
  6
Continuous
 62
     7
370
    25
100
AcDbVertex
100
AcDb2dVertex
 10
225.9445872339
 20
191.7333027416
 30
0.0
  0
VERTEX
  5
EA
330
A3
100
AcDbEntity
  8
0
  6
Continuous
 62
     7
370
    25
100
AcDbVertex
100
AcDb2dVertex
 10
225.5762090591
 20
192.1814026884
 30
0.0
  0
VERTEX
  5
EB
330
A3
100
AcDbEntity
  8
0
  6
Continuous
 62
     7
370
    25
100
AcDbVertex
100
AcDb2dVertex
 10
225.1766397526
 20
192.6160754405
 30
0.0
  0
VERTEX
  5
EC
330
A3
100
AcDbEntity
  8
0
  6
Continuous
 62
     7
370
    25
100
AcDbVertex
100
AcDb2dVertex
 10
224.7465443579
 20
193.036597528
 30
0.0
  0
VERTEX
  5
ED
330
A3
100
AcDbEntity
  8
0
  6
Continuous
 62
     7
370
    25
100
AcDbVertex
100
AcDb2dVertex
 10
224.2866387266
 20
193.4422690334
 30
0.0
  0
VERTEX
  5
EE
330
A3
100
AcDbEntity
  8
0
  6
Continuous
 62
     7
370
    25
100
AcDbVertex
100
AcDb2dVertex
 10
223.797688326
 20
193.8324147565
 30
0.0
  0
VERTEX
  5
EF
330
A3
100
AcDbEntity
  8
0
  6
Continuous
 62
     7
370
    25
100
AcDbVertex
100
AcDb2dVertex
 10
223.2805069659
 20
194.2063853382
 30
0.0
  0
VERTEX
  5
F0
330
A3
100
AcDbEntity
  8
0
  6
Continuous
 62
     7
370
    25
100
AcDbVertex
100
AcDb2dVertex
 10
222.8657459217
 20
194.4815429771
 30
0.0
  0
SEQEND
  5
F1
330
A3
100
AcDbEntity
  8
0
  6
Continuous
 62
     7
370
    25
  0
POLYLINE
  5
F2
330
A
100
AcDbEntity
  8
0
  6
Continuous
 62
     7
370
    25
100
AcDb2dPolyline
 66
     1
 10
0.0
 20
0.0
 30
0.0
 75
     5
  0
VERTEX
  5
F3
330
F2
100
AcDbEntity
  8
0
  6
Continuous
 62
     7
370
    25
100
AcDbVertex
100
AcDb2dVertex
 10
188.1592961127
 20
188.0654363424
 30
0.0
  0
VERTEX
  5
F4
330
F2
100
AcDbEntity
  8
0
  6
Continuous
 62
     7
370
    25
100
AcDbVertex
100
AcDb2dVertex
 10
187.7917954175
 20
187.5447014703
 30
0.0
  0
VERTEX
  5
F5
330
F2
100
AcDbEntity
  8
0
  6
Continuous
 62
     7
370
    25
100
AcDbVertex
100
AcDb2dVertex
 10
187.4494280987
 20
187.0093826368
 30
0.0
  0
VERTEX
  5
F6
330
F2
100
AcDbEntity
  8
0
  6
Continuous
 62
     7
370
    25
100
AcDbVertex
100
AcDb2dVertex
 10
187.1393279124
 20
186.4692449255
 30
0.0
  0
VERTEX
  5
F7
330
F2
100
AcDbEntity
  8
0
  6
Continuous
 62
     7
370
    25
100
AcDbVertex
100
AcDb2dVertex
 10
186.8620109897
 20
185.9251873423
 30
0.0
  0
VERTEX
  5
F8
330
F2
100
AcDbEntity
  8
0
  6
Continuous
 62
     7
370
    25
100
AcDbVertex
100
AcDb2dVertex
 10
186.6179388972
 20
185.3781154175
 30
0.0
  0
VERTEX
  5
F9
330
F2
100
AcDbEntity
  8
0
  6
Continuous
 62
     7
370
    25
100
AcDbVertex
100
AcDb2dVertex
 10
186.4075178689
 20
184.8289396983
 30
0.0
  0
VERTEX
  5
FA
330
F2
100
AcDbEntity
  8
0
  6
Continuous
 62
     7
370
    25
100
AcDbVertex
100
AcDb2dVertex
 10
186.2310981298
 20
184.2785742334
 30
0.0
  0
VERTEX
  5
FB
330
F2
100
AcDbEntity
  8
0
  6
Continuous
 62
     7
370
    25
100
AcDbVertex
100
AcDb2dVertex
 10
186.0889733131
 20
183.7279350518
 30
0.0
  0
VERTEX
  5
FC
330
F2
100
AcDbEntity
  8
0
  6
Continuous
 62
     7
370
    25
100
AcDbVertex
100
AcDb2dVertex
 10
185.9813799717
 20
183.1779386382
 30
0.0
  0
VERTEX
  5
FD
330
F2
100
AcDbEntity
  8
0
  6
Continuous
 62
     7
370
    25
100
AcDbVertex
100
AcDb2dVertex
 10
185.9084971839
 20
182.6295004072
 30
0.0
  0
VERTEX
  5
FE
330
F2
100
AcDbEntity
  8
0
  6
Continuous
 62
     7
370
    25
100
AcDbVertex
100
AcDb2dVertex
 10
185.8704462559
 20
182.0835331802
 30
0.0
  0
VERTEX
  5
FF
330
F2
100
AcDbEntity
  8
0
  6
Continuous
 62
     7
370
    25
100
AcDbVertex
100
AcDb2dVertex
 10
185.8672905199
 20
181.5409456658
 30
0.0
  0
VERTEX
  5
100
330
F2
100
AcDbEntity
  8
0
  6
Continuous
 62
     7
370
    25
100
AcDbVertex
100
AcDb2dVertex
 10
185.8990352282
 20
181.0026409473
 30
0.0
  0
VERTEX
  5
101
330
F2
100
AcDbEntity
  8
0
  6
Continuous
 62
     7
370
    25
100
AcDbVertex
100
AcDb2dVertex
 10
185.9656275448
 20
180.4695149798
 30
0.0
  0
VERTEX
  5
102
330
F2
100
AcDbEntity
  8
0
  6
Continuous
 62
     7
370
    25
100
AcDbVertex
100
AcDb2dVertex
 10
186.0669566335
 20
179.9424550989
 30
0.0
  0
VERTEX
  5
103
330
F2
100
AcDbEntity
  8
0
  6
Continuous
 62
     7
370
    25
100
AcDbVertex
100
AcDb2dVertex
 10
186.202853842
 20
179.4223385436
 30
0.0
  0
VERTEX
  5
104
330
F2
100
AcDbEntity
  8
0
  6
Continuous
 62
     7
370
    25
100
AcDbVertex
100
AcDb2dVertex
 10
186.3730929827
 20
178.9100309968
 30
0.0
  0
VERTEX
  5
105
330
F2
100
AcDbEntity
  8
0
  6
Continuous
 62
     7
370
    25
100
AcDbVertex
100
AcDb2dVertex
 10
186.5773907095
 20
178.4063851437
 30
0.0
  0
VERTEX
  5
106
330
F2
100
AcDbEntity
  8
0
  6
Continuous
 62
     7
370
    25
100
AcDbVertex
100
AcDb2dVertex
 10
186.8154069888
 20
177.9122392532
 30
0.0
  0
VERTEX
  5
107
330
F2
100
AcDbEntity
  8
0
  6
Continuous
 62
     7
370
    25
100
AcDbVertex
100
AcDb2dVertex
 10
187.0867456662
 20
177.4284157823
 30
0.0
  0
VERTEX
  5
108
330
F2
100
AcDbEntity
  8
0
  6
Continuous
 62
     7
370
    25
100
AcDbVertex
100
AcDb2dVertex
 10
187.3909551252
 20
176.9557200074
 30
0.0
  0
VERTEX
  5
109
330
F2
100
AcDbEntity
  8
0
  6
Continuous
 62
     7
370
    25
100
AcDbVertex
100
AcDb2dVertex
 10
187.7275290391
 20
176.4949386841
 30
0.0
  0
VERTEX
  5
10A
330
F2
100
AcDbEntity
  8
0
  6
Continuous
 62
     7
370
    25
100
AcDbVertex
100
AcDb2dVertex
 10
188.0959072138
 20
176.0468387373
 30
0.0
  0
VERTEX
  5
10B
330
F2
100
AcDbEntity
  8
0
  6
Continuous
 62
     7
370
    25
100
AcDbVertex
100
AcDb2dVertex
 10
188.4954765204
 20
175.6121659852
 30
0.0
  0
VERTEX
  5
10C
330
F2
100
AcDbEntity
  8
0
  6
Continuous
 62
     7
370
    25
100
AcDbVertex
100
AcDb2dVertex
 10
188.925571915
 20
175.1916438977
 30
0.0
  0
VERTEX
  5
10D
330
F2
100
AcDbEntity
  8
0
  6
Continuous
 62
     7
370
    25
100
AcDbVertex
100
AcDb2dVertex
 10
189.3854775464
 20
174.7859723924
 30
0.0
  0
VERTEX
  5
10E
330
F2
100
AcDbEntity
  8
0
  6
Continuous
 62
     7
370
    25
100
AcDbVertex
100
AcDb2dVertex
 10
189.8744279469
 20
174.3958266693
 30
0.0
  0
VERTEX
  5
10F
330
F2
100
AcDbEntity
  8
0
  6
Continuous
 62
     7
370
    25
100
AcDbVertex
100
AcDb2dVertex
 10
190.391609307
 20
174.0218560875
 30
0.0
  0
VERTEX
  5
110
330
F2
100
AcDbEntity
  8
0
  6
Continuous
 62
     7
370
    25
100
AcDbVertex
100
AcDb2dVertex
 10
190.9361608293
 20
173.6646830843
 30
0.0
  0
VERTEX
  5
111
330
F2
100
AcDbEntity
  8
0
  6
Continuous
 62
     7
370
    25
100
AcDbVertex
100
AcDb2dVertex
 10
191.5071761615
 20
173.3249021387
 30
0.0
  0
SEQEND
  5
112
330
F2
100
AcDbEntity
  8
0
  6
Continuous
 62
     7
370
    25
  0
POLYLINE
  5
113
330
A
100
AcDbEntity
  8
0
  6
Continuous
 62
     7
370
    25
100
AcDb2dPolyline
 66
     1
 10
0.0
 20
0.0
 30
0.0
 75
     5
  0
VERTEX
  5
114
330
113
100
AcDbEntity
  8
0
  6
Continuous
 62
     7
370
    25
100
AcDbVertex
100
AcDb2dVertex
 10
193.9988818802
 20
181.0582047531
 30
0.0
  0
VERTEX
  5
115
330
113
100
AcDbEntity
  8
0
  6
Continuous
 62
     7
370
    25
100
AcDbVertex
100
AcDb2dVertex
 10
194.5268726487
 20
180.775327728
 30
0.0
  0
VERTEX
  5
116
330
113
100
AcDbEntity
  8
0
  6
Continuous
 62
     7
370
    25
100
AcDbVertex
100
AcDb2dVertex
 10
195.0794039272
 20
180.5111410242
 30
0.0
  0
VERTEX
  5
117
330
113
100
AcDbEntity
  8
0
  6
Continuous
 62
     7
370
    25
100
AcDbVertex
100
AcDb2dVertex
 10
195.6552790558
 20
180.2662168113
 30
0.0
  0
VERTEX
  5
118
330
113
100
AcDbEntity
  8
0
  6
Continuous
 62
     7
370
    25
100
AcDbVertex
100
AcDb2dVertex
 10
196.2532508174
 20
180.0410855404
 30
0.0
  0
VERTEX
  5
119
330
113
100
AcDbEntity
  8
0
  6
Continuous
 62
     7
370
    25
100
AcDbVertex
100
AcDb2dVertex
 10
196.8720241383
 20
179.8362347959
 30
0.0
  0
VERTEX
  5
11A
330
113
100
AcDbEntity
  8
0
  6
Continuous
 62
     7
370
    25
100
AcDbVertex
100
AcDb2dVertex
 10
197.5102588932
 20
179.6521082388
 30
0.0
  0
VERTEX
  5
11B
330
113
100
AcDbEntity
  8
0
  6
Continuous
 62
     7
370
    25
100
AcDbVertex
100
AcDb2dVertex
 10
198.1665728077
 20
179.4891046462
 30
0.0
  0
VERTEX
  5
11C
330
113
100
AcDbEntity
  8
0
  6
Continuous
 62
     7
370
    25
100
AcDbVertex
100
AcDb2dVertex
 10
198.8395444521
 20
179.3475770477
 30
0.0
  0
VERTEX
  5
11D
330
113
100
AcDbEntity
  8
0
  6
Continuous
 62
     7
370
    25
100
AcDbVertex
100
AcDb2dVertex
 10
199.5277163197
 20
179.2278319604
 30
0.0
  0
VERTEX
  5
11E
330
113
100
AcDbEntity
  8
0
  6
Continuous
 62
     7
370
    25
100
AcDbVertex
100
AcDb2dVertex
 10
200.2295979833
 20
179.1301287256
 30
0.0
  0
VERTEX
  5
11F
330
113
100
AcDbEntity
  8
0
  6
Continuous
 62
     7
370
    25
100
AcDbVertex
100
AcDb2dVertex
 10
200.9436693237
 20
179.0546789468
 30
0.0
  0
VERTEX
  5
120
330
113
100
AcDbEntity
  8
0
  6
Continuous
 62
     7
370
    25
100
AcDbVertex
100
AcDb2dVertex
 10
201.6683838213
 20
179.0016460313
 30
0.0
  0
VERTEX
  5
121
330
113
100
AcDbEntity
  8
0
  6
Continuous
 62
     7
370
    25
100
AcDbVertex
100
AcDb2dVertex
 10
202.4021719059
 20
178.9711448367
 30
0.0
  0
VERTEX
  5
122
330
113
100
AcDbEntity
  8
0
  6
Continuous
 62
     7
370
    25
100
AcDbVertex
100
AcDb2dVertex
 10
203.1434443559
 20
178.9632414217
 30
0.0
  0
VERTEX
  5
123
330
113
100
AcDbEntity
  8
0
  6
Continuous
 62
     7
370
    25
100
AcDbVertex
100
AcDb2dVertex
 10
203.8905957402
 20
178.9779529034
 30
0.0
  0
VERTEX
  5
124
330
113
100
AcDbEntity
  8
0
  6
Continuous
 62
     7
370
    25
100
AcDbVertex
100
AcDb2dVertex
 10
204.6420078954
 20
179.0152474199
 30
0.0
  0
VERTEX
  5
125
330
113
100
AcDbEntity
  8
0
  6
Continuous
 62
     7
370
    25
100
AcDbVertex
100
AcDb2dVertex
 10
205.3960534299
 20
179.0750441997
 30
0.0
  0
VERTEX
  5
126
330
113
100
AcDbEntity
  8
0
  6
Continuous
 62
     7
370
    25
100
AcDbVertex
100
AcDb2dVertex
 10
206.1510992491
 20
179.1572137363
 30
0.0
  0
VERTEX
  5
127
330
113
100
AcDbEntity
  8
0
  6
Continuous
 62
     7
370
    25
100
AcDbVertex
100
AcDb2dVertex
 10
206.9055100919
 20
179.2615780687
 30
0.0
  0
VERTEX
  5
128
330
113
100
AcDbEntity
  8
0
  6
Continuous
 62
     7
370
    25
100
AcDbVertex
100
AcDb2dVertex
 10
207.6576520723
 20
179.387911167
 30
0.0
  0
VERTEX
  5
129
330
113
100
AcDbEntity
  8
0
  6
Continuous
 62
     7
370
    25
100
AcDbVertex
100
AcDb2dVertex
 10
208.4058962184
 20
179.5359394219
 30
0.0
  0
VERTEX
  5
12A
330
113
100
AcDbEntity
  8
0
  6
Continuous
 62
     7
370
    25
100
AcDbVertex
100
AcDb2dVertex
 10
209.1486219999
 20
179.7053422372
 30
0.0
  0
VERTEX
  5
12B
330
113
100
AcDbEntity
  8
0
  6
Continuous
 62
     7
370
    25
100
AcDbVertex
100
AcDb2dVertex
 10
209.8842208382
 20
179.895752724
 30
0.0
  0
VERTEX
  5
12C
330
113
100
AcDbEntity
  8
0
  6
Continuous
 62
     7
370
    25
100
AcDbVertex
100
AcDb2dVertex
 10
210.61109959
 20
180.1067584956
 30
0.0
  0
VERTEX
  5
12D
330
113
100
AcDbEntity
  8
0
  6
Continuous
 62
     7
370
    25
100
AcDbVertex
100
AcDb2dVertex
 10
211.3276839977
 20
180.3379025605
 30
0.0
  0
VERTEX
  5
12E
330
113
100
AcDbEntity
  8
0
  6
Continuous
 62
     7
370
    25
100
AcDbVertex
100
AcDb2dVertex
 10
212.0324220991
 20
180.5886843123
 30
0.0
  0
VERTEX
  5
12F
330
113
100
AcDbEntity
  8
0
  6
Continuous
 62
     7
370
    25
100
AcDbVertex
100
AcDb2dVertex
 10
212.7237875885
 20
180.8585606133
 30
0.0
  0
VERTEX
  5
130
330
113
100
AcDbEntity
  8
0
  6
Continuous
 62
     7
370
    25
100
AcDbVertex
100
AcDb2dVertex
 10
213.4002831221
 20
181.1469469717
 30
0.0
  0
VERTEX
  5
131
330
113
100
AcDbEntity
  8
0
  6
Continuous
 62
     7
370
    25
100
AcDbVertex
100
AcDb2dVertex
 10
214.0604435612
 20
181.4532188067
 30
0.0
  0
VERTEX
  5
132
330
113
100
AcDbEntity
  8
0
  6
Continuous
 62
     7
370
    25
100
AcDbVertex
100
AcDb2dVertex
 10
214.7028391453
 20
181.776712802
 30
0.0
  0
VERTEX
  5
133
330
113
100
AcDbEntity
  8
0
  6
Continuous
 62
     7
370
    25
100
AcDbVertex
100
AcDb2dVertex
 10
215.3260785886
 20
182.1167283413
 30
0.0
  0
VERTEX
  5
134
330
113
100
AcDbEntity
  8
0
  6
Continuous
 62
     7
370
    25
100
AcDbVertex
100
AcDb2dVertex
 10
215.9288120933
 20
182.4725290269
 30
0.0
  0
VERTEX
  5
135
330
113
100
AcDbEntity
  8
0
  6
Continuous
 62
     7
370
    25
100
AcDbVertex
100
AcDb2dVertex
 10
216.5097342729
 20
182.8433442736
 30
0.0
  0
VERTEX
  5
136
330
113
100
AcDbEntity
  8
0
  6
Continuous
 62
     7
370
    25
100
AcDbVertex
100
AcDb2dVertex
 10
217.0675869791
 20
183.2283709783
 30
0.0
  0
VERTEX
  5
137
330
113
100
AcDbEntity
  8
0
  6
Continuous
 62
     7
370
    25
100
AcDbVertex
100
AcDb2dVertex
 10
217.6011620274
 20
183.6267752587
 30
0.0
  0
VERTEX
  5
138
330
113
100
AcDbEntity
  8
0
  6
Continuous
 62
     7
370
    25
100
AcDbVertex
100
AcDb2dVertex
 10
218.1093038129
 20
184.03769426
 30
0.0
  0
VERTEX
  5
139
330
113
100
AcDbEntity
  8
0
  6
Continuous
 62
     7
370
    25
100
AcDbVertex
100
AcDb2dVertex
 10
218.5909118138
 20
184.4602380231
 30
0.0
  0
VERTEX
  5
13A
330
113
100
AcDbEntity
  8
0
  6
Continuous
 62
     7
370
    25
100
AcDbVertex
100
AcDb2dVertex
 10
219.0449429742
 20
184.8934914123
 30
0.0
  0
VERTEX
  5
13B
330
113
100
AcDbEntity
  8
0
  6
Continuous
 62
     7
370
    25
100
AcDbVertex
100
AcDb2dVertex
 10
219.4704139639
 20
185.3365160972
 30
0.0
  0
VERTEX
  5
13C
330
113
100
AcDbEntity
  8
0
  6
Continuous
 62
     7
370
    25
100
AcDbVertex
100
AcDb2dVertex
 10
219.8664033074
 20
185.788352585
 30
0.0
  0
VERTEX
  5
13D
330
113
100
AcDbEntity
  8
0
  6
Continuous
 62
     7
370
    25
100
AcDbVertex
100
AcDb2dVertex
 10
220.2320533799
 20
186.2480222985
 30
0.0
  0
VERTEX
  5
13E
330
113
100
AcDbEntity
  8
0
  6
Continuous
 62
     7
370
    25
100
AcDbVertex
100
AcDb2dVertex
 10
220.5665722649
 20
186.7145296954
 30
0.0
  0
VERTEX
  5
13F
330
113
100
AcDbEntity
  8
0
  6
Continuous
 62
     7
370
    25
100
AcDbVertex
100
AcDb2dVertex
 10
220.8692354688
 20
187.1868644246
 30
0.0
  0
VERTEX
  5
140
330
113
100
AcDbEntity
  8
0
  6
Continuous
 62
     7
370
    25
100
AcDbVertex
100
AcDb2dVertex
 10
221.1393874907
 20
187.6640035144
 30
0.0
  0
VERTEX
  5
141
330
113
100
AcDbEntity
  8
0
  6
Continuous
 62
     7
370
    25
100
AcDbVertex
100
AcDb2dVertex
 10
221.3764432414
 20
188.1449135875
 30
0.0
  0
VERTEX
  5
142
330
113
100
AcDbEntity
  8
0
  6
Continuous
 62
     7
370
    25
100
AcDbVertex
100
AcDb2dVertex
 10
221.5798893109
 20
188.6285531
 30
0.0
  0
VERTEX
  5
143
330
113
100
AcDbEntity
  8
0
  6
Continuous
 62
     7
370
    25
100
AcDbVertex
100
AcDb2dVertex
 10
221.7492850803
 20
189.1138745962
 30
0.0
  0
VERTEX
  5
144
330
113
100
AcDbEntity
  8
0
  6
Continuous
 62
     7
370
    25
100
AcDbVertex
100
AcDb2dVertex
 10
221.8842636761
 20
189.599826978
 30
0.0
  0
VERTEX
  5
145
330
113
100
AcDbEntity
  8
0
  6
Continuous
 62
     7
370
    25
100
AcDbVertex
100
AcDb2dVertex
 10
221.9845327648
 20
190.0853577807
 30
0.0
  0
VERTEX
  5
146
330
113
100
AcDbEntity
  8
0
  6
Continuous
 62
     7
370
    25
100
AcDbVertex
100
AcDb2dVertex
 10
222.0498751858
 20
190.5694154527
 30
0.0
  0
VERTEX
  5
147
330
113
100
AcDbEntity
  8
0
  6
Continuous
 62
     7
370
    25
100
AcDbVertex
100
AcDb2dVertex
 10
222.0801494219
 20
191.0509516328
 30
0.0
  0
VERTEX
  5
148
330
113
100
AcDbEntity
  8
0
  6
Continuous
 62
     7
370
    25
100
AcDbVertex
100
AcDb2dVertex
 10
222.075289906
 20
191.528923421
 30
0.0
  0
VERTEX
  5
149
330
113
100
AcDbEntity
  8
0
  6
Continuous
 62
     7
370
    25
100
AcDbVertex
100
AcDb2dVertex
 10
222.0353071627
 20
192.0022956367
 30
0.0
  0
VERTEX
  5
14A
330
113
100
AcDbEntity
  8
0
  6
Continuous
 62
     7
370
    25
100
AcDbVertex
100
AcDb2dVertex
 10
221.9602877856
 20
192.4700430611
 30
0.0
  0
VERTEX
  5
14B
330
113
100
AcDbEntity
  8
0
  6
Continuous
 62
     7
370
    25
100
AcDbVertex
100
AcDb2dVertex
 10
221.8503942501
 20
192.9311526575
 30
0.0
  0
VERTEX
  5
14C
330
113
100
AcDbEntity
  8
0
  6
Continuous
 62
     7
370
    25
100
AcDbVertex
100
AcDb2dVertex
 10
221.705864561
 20
193.3846257652
 30
0.0
  0
VERTEX
  5
14D
330
113
100
AcDbEntity
  8
0
  6
Continuous
 62
     7
370
    25
100
AcDbVertex
100
AcDb2dVertex
 10
221.5270117375
 20
193.8294802623
 30
0.0
  0
VERTEX
  5
14E
330
113
100
AcDbEntity
  8
0
  6
Continuous
 62
     7
370
    25
100
AcDbVertex
100
AcDb2dVertex
 10
221.314223135
 20
194.2647526932
 30
0.0
  0
VERTEX
  5
14F
330
113
100
AcDbEntity
  8
0
  6
Continuous
 62
     7
370
    25
100
AcDbVertex
100
AcDb2dVertex
 10
221.0679596063
 20
194.6895003547
 30
0.0
  0
VERTEX
  5
150
330
113
100
AcDbEntity
  8
0
  6
Continuous
 62
     7
370
    25
100
AcDbVertex
100
AcDb2dVertex
 10
220.7887545032
 20
195.1028033378
 30
0.0
  0
VERTEX
  5
151
330
113
100
AcDbEntity
  8
0
  6
Continuous
 62
     7
370
    25
100
AcDbVertex
100
AcDb2dVertex
 10
220.4772125218
 20
195.5037665204
 30
0.0
  0
VERTEX
  5
152
330
113
100
AcDbEntity
  8
0
  6
Continuous
 62
     7
370
    25
100
AcDbVertex
100
AcDb2dVertex
 10
220.1340083928
 20
195.8915215055
 30
0.0
  0
VERTEX
  5
153
330
113
100
AcDbEntity
  8
0
  6
Continuous
 62
     7
370
    25
100
AcDbVertex
100
AcDb2dVertex
 10
219.7598854198
 20
196.2652285022
 30
0.0
  0
VERTEX
  5
154
330
113
100
AcDbEntity
  8
0
  6
Continuous
 62
     7
370
    25
100
AcDbVertex
100
AcDb2dVertex
 10
219.3556538699
 20
196.6240781443
 30
0.0
  0
VERTEX
  5
155
330
113
100
AcDbEntity
  8
0
  6
Continuous
 62
     7
370
    25
100
AcDbVertex
100
AcDb2dVertex
 10
218.9221892186
 20
196.9672932434
 30
0.0
  0
VERTEX
  5
156
330
113
100
AcDbEntity
  8
0
  6
Continuous
 62
     7
370
    25
100
AcDbVertex
100
AcDb2dVertex
 10
218.4604302538
 20
197.294130472
 30
0.0
  0
VERTEX
  5
157
330
113
100
AcDbEntity
  8
0
  6
Continuous
 62
     7
370
    25
100
AcDbVertex
100
AcDb2dVertex
 10
217.9713770427
 20
197.6038819734
 30
0.0
  0
VERTEX
  5
158
330
113
100
AcDbEntity
  8
0
  6
Continuous
 62
     7
370
    25
100
AcDbVertex
100
AcDb2dVertex
 10
217.4560887655
 20
197.8958768949
 30
0.0
  0
VERTEX
  5
159
330
113
100
AcDbEntity
  8
0
  6
Continuous
 62
     7
370
    25
100
AcDbVertex
100
AcDb2dVertex
 10
217.4371001528
 20
197.9060296987
 30
0.0
  0
SEQEND
  5
15A
330
113
100
AcDbEntity
  8
0
  6
Continuous
 62
     7
370
    25
  0
POLYLINE
  5
15B
330
A
100
AcDbEntity
  8
0
  6
Continuous
 62
     7
370
    25
100
AcDb2dPolyline
 66
     1
 10
0.0
 20
0.0
 30
0.0
 75
     5
  0
VERTEX
  5
15C
330
15B
100
AcDbEntity
  8
0
  6
Continuous
 62
     7
370
    25
100
AcDbVertex
100
AcDb2dVertex
 10
192.0048313805
 20
193.20442094
 30
0.0
  0
VERTEX
  5
15D
330
15B
100
AcDbEntity
  8
0
  6
Continuous
 62
     7
370
    25
100
AcDbVertex
100
AcDb2dVertex
 10
191.6627539134
 20
192.7930740649
 30
0.0
  0
VERTEX
  5
15E
330
15B
100
AcDbEntity
  8
0
  6
Continuous
 62
     7
370
    25
100
AcDbVertex
100
AcDb2dVertex
 10
191.3125746205
 20
192.3298600904
 30
0.0
  0
VERTEX
  5
15F
330
15B
100
AcDbEntity
  8
0
  6
Continuous
 62
     7
370
    25
100
AcDbVertex
100
AcDb2dVertex
 10
190.9938972914
 20
191.860311893
 30
0.0
  0
VERTEX
  5
160
330
15B
100
AcDbEntity
  8
0
  6
Continuous
 62
     7
370
    25
100
AcDbVertex
100
AcDb2dVertex
 10
190.7074121101
 20
191.3854464095
 30
0.0
  0
VERTEX
  5
161
330
15B
100
AcDbEntity
  8
0
  6
Continuous
 62
     7
370
    25
100
AcDbVertex
100
AcDb2dVertex
 10
190.4537395397
 20
190.9062920928
 30
0.0
  0
VERTEX
  5
162
330
15B
100
AcDbEntity
  8
0
  6
Continuous
 62
     7
370
    25
100
AcDbVertex
100
AcDb2dVertex
 10
190.2334289786
 20
190.4238866845
 30
0.0
  0
VERTEX
  5
163
330
15B
100
AcDbEntity
  8
0
  6
Continuous
 62
     7
370
    25
100
AcDbVertex
100
AcDb2dVertex
 10
190.0469575704
 20
189.9392749672
 30
0.0
  0
VERTEX
  5
164
330
15B
100
AcDbEntity
  8
0
  6
Continuous
 62
     7
370
    25
100
AcDbVertex
100
AcDb2dVertex
 10
189.8947291706
 20
189.4535065021
 30
0.0
  0
VERTEX
  5
165
330
15B
100
AcDbEntity
  8
0
  6
Continuous
 62
     7
370
    25
100
AcDbVertex
100
AcDb2dVertex
 10
189.777073472
 20
188.9676333554
 30
0.0
  0
VERTEX
  5
166
330
15B
100
AcDbEntity
  8
0
  6
Continuous
 62
     7
370
    25
100
AcDbVertex
100
AcDb2dVertex
 10
189.6942452907
 20
188.4827078202
 30
0.0
  0
VERTEX
  5
167
330
15B
100
AcDbEntity
  8
0
  6
Continuous
 62
     7
370
    25
100
AcDbVertex
100
AcDb2dVertex
 10
189.6464240141
 20
187.9997801372
 30
0.0
  0
VERTEX
  5
168
330
15B
100
AcDbEntity
  8
0
  6
Continuous
 62
     7
370
    25
100
AcDbVertex
100
AcDb2dVertex
 10
189.6337132124
 20
187.5198962203
 30
0.0
  0
VERTEX
  5
169
330
15B
100
AcDbEntity
  8
0
  6
Continuous
 62
     7
370
    25
100
AcDbVertex
100
AcDb2dVertex
 10
189.6561404144
 20
187.0440953911
 30
0.0
  0
VERTEX
  5
16A
330
15B
100
AcDbEntity
  8
0
  6
Continuous
 62
     7
370
    25
100
AcDbVertex
100
AcDb2dVertex
 10
189.7136570478
 20
186.5734081283
 30
0.0
  0
VERTEX
  5
16B
330
15B
100
AcDbEntity
  8
0
  6
Continuous
 62
     7
370
    25
100
AcDbVertex
100
AcDb2dVertex
 10
189.8061385443
 20
186.1088538358
 30
0.0
  0
VERTEX
  5
16C
330
15B
100
AcDbEntity
  8
0
  6
Continuous
 62
     7
370
    25
100
AcDbVertex
100
AcDb2dVertex
 10
189.9333846095
 20
185.6514386345
 30
0.0
  0
VERTEX
  5
16D
330
15B
100
AcDbEntity
  8
0
  6
Continuous
 62
     7
370
    25
100
AcDbVertex
100
AcDb2dVertex
 10
190.095119657
 20
185.2021531841
 30
0.0
  0
VERTEX
  5
16E
330
15B
100
AcDbEntity
  8
0
  6
Continuous
 62
     7
370
    25
100
AcDbVertex
100
AcDb2dVertex
 10
190.2909934045
 20
184.7619705367
 30
0.0
  0
VERTEX
  5
16F
330
15B
100
AcDbEntity
  8
0
  6
Continuous
 62
     7
370
    25
100
AcDbVertex
100
AcDb2dVertex
 10
190.5205816332
 20
184.33184403
 30
0.0
  0
VERTEX
  5
170
330
15B
100
AcDbEntity
  8
0
  6
Continuous
 62
     7
370
    25
100
AcDbVertex
100
AcDb2dVertex
 10
190.783387106
 20
183.9127052222
 30
0.0
  0
VERTEX
  5
171
330
15B
100
AcDbEntity
  8
0
  6
Continuous
 62
     7
370
    25
100
AcDbVertex
100
AcDb2dVertex
 10
191.0788406449
 20
183.5054618746
 30
0.0
  0
VERTEX
  5
172
330
15B
100
AcDbEntity
  8
0
  6
Continuous
 62
     7
370
    25
100
AcDbVertex
100
AcDb2dVertex
 10
191.4063023632
 20
183.1109959856
 30
0.0
  0
VERTEX
  5
173
330
15B
100
AcDbEntity
  8
0
  6
Continuous
 62
     7
370
    25
100
AcDbVertex
100
AcDb2dVertex
 10
191.7650630519
 20
182.7301618805
 30
0.0
  0
VERTEX
  5
174
330
15B
100
AcDbEntity
  8
0
  6
Continuous
 62
     7
370
    25
100
AcDbVertex
100
AcDb2dVertex
 10
192.154345715
 20
182.3637843612
 30
0.0
  0
VERTEX
  5
175
330
15B
100
AcDbEntity
  8
0
  6
Continuous
 62
     7
370
    25
100
AcDbVertex
100
AcDb2dVertex
 10
192.5733072532
 20
182.0126569198
 30
0.0
  0
VERTEX
  5
176
330
15B
100
AcDbEntity
  8
0
  6
Continuous
 62
     7
370
    25
100
AcDbVertex
100
AcDb2dVertex
 10
193.0210402888
 20
181.6775400201
 30
0.0
  0
VERTEX
  5
177
330
15B
100
AcDbEntity
  8
0
  6
Continuous
 62
     7
370
    25
100
AcDbVertex
100
AcDb2dVertex
 10
193.4965751321
 20
181.3591594507
 30
0.0
  0
VERTEX
  5
178
330
15B
100
AcDbEntity
  8
0
  6
Continuous
 62
     7
370
    25
100
AcDbVertex
100
AcDb2dVertex
 10
193.9988818802
 20
181.0582047531
 30
0.0
  0
SEQEND
  5
179
330
15B
100
AcDbEntity
  8
0
  6
Continuous
 62
     7
370
    25
  0
POLYLINE
  5
17A
330
A
100
AcDbEntity
  8
0
  6
Continuous
 62
     7
370
    25
100
AcDb2dPolyline
 66
     1
 10
0.0
 20
0.0
 30
0.0
 75
     5
  0
VERTEX
  5
17B
330
17A
100
AcDbEntity
  8
0
  6
Continuous
 62
     7
370
    25
100
AcDbVertex
100
AcDb2dVertex
 10
190.6772333215
 20
170.7490766367
 30
0.0
  0
VERTEX
  5
17C
330
17A
100
AcDbEntity
  8
0
  6
Continuous
 62
     7
370
    25
100
AcDbVertex
100
AcDb2dVertex
 10
191.2941991846
 20
170.4156117699
 30
0.0
  0
VERTEX
  5
17D
330
17A
100
AcDbEntity
  8
0
  6
Continuous
 62
     7
370
    25
100
AcDbVertex
100
AcDb2dVertex
 10
191.9356318319
 20
170.1005515872
 30
0.0
  0
VERTEX
  5
17E
330
17A
100
AcDbEntity
  8
0
  6
Continuous
 62
     7
370
    25
100
AcDbVertex
100
AcDb2dVertex
 10
192.600542221
 20
169.8043818886
 30
0.0
  0
VERTEX
  5
17F
330
17A
100
AcDbEntity
  8
0
  6
Continuous
 62
     7
370
    25
100
AcDbVertex
100
AcDb2dVertex
 10
193.287905108
 20
169.5275593462
 30
0.0
  0
VERTEX
  5
180
330
17A
100
AcDbEntity
  8
0
  6
Continuous
 62
     7
370
    25
100
AcDbVertex
100
AcDb2dVertex
 10
193.9966606293
 20
169.2705108005
 30
0.0
  0
VERTEX
  5
181
330
17A
100
AcDbEntity
  8
0
  6
Continuous
 62
     7
370
    25
100
AcDbVertex
100
AcDb2dVertex
 10
194.7257159352
 20
169.0336326016
 30
0.0
  0
VERTEX
  5
182
330
17A
100
AcDbEntity
  8
0
  6
Continuous
 62
     7
370
    25
100
AcDbVertex
100
AcDb2dVertex
 10
195.4739468753
 20
168.8172899985
 30
0.0
  0
VERTEX
  5
183
330
17A
100
AcDbEntity
  8
0
  6
Continuous
 62
     7
370
    25
100
AcDbVertex
100
AcDb2dVertex
 10
196.2401997317
 20
168.6218165758
 30
0.0
  0
VERTEX
  5
184
330
17A
100
AcDbEntity
  8
0
  6
Continuous
 62
     7
370
    25
100
AcDbVertex
100
AcDb2dVertex
 10
197.023292998
 20
168.4475137395
 30
0.0
  0
VERTEX
  5
185
330
17A
100
AcDbEntity
  8
0
  6
Continuous
 62
     7
370
    25
100
AcDbVertex
100
AcDb2dVertex
 10
197.8220192013
 20
168.2946502517
 30
0.0
  0
VERTEX
  5
186
330
17A
100
AcDbEntity
  8
0
  6
Continuous
 62
     7
370
    25
100
AcDbVertex
100
AcDb2dVertex
 10
198.6351467634
 20
168.163461817
 30
0.0
  0
VERTEX
  5
187
330
17A
100
AcDbEntity
  8
0
  6
Continuous
 62
     7
370
    25
100
AcDbVertex
100
AcDb2dVertex
 10
199.4614219008
 20
168.0541507184
 30
0.0
  0
VERTEX
  5
188
330
17A
100
AcDbEntity
  8
0
  6
Continuous
 62
     7
370
    25
100
AcDbVertex
100
AcDb2dVertex
 10
200.2995705571
 20
167.9668855058
 30
0.0
  0
VERTEX
  5
189
330
17A
100
AcDbEntity
  8
0
  6
Continuous
 62
     7
370
    25
100
AcDbVertex
100
AcDb2dVertex
 10
201.1483003677
 20
167.9018007356
 30
0.0
  0
VERTEX
  5
18A
330
17A
100
AcDbEntity
  8
0
  6
Continuous
 62
     7
370
    25
100
AcDbVertex
100
AcDb2dVertex
 10
202.0063026528
 20
167.858996764
 30
0.0
  0
VERTEX
  5
18B
330
17A
100
AcDbEntity
  8
0
  6
Continuous
 62
     7
370
    25
100
AcDbVertex
100
AcDb2dVertex
 10
202.872254435
 20
167.8385395915
 30
0.0
  0
VERTEX
  5
18C
330
17A
100
AcDbEntity
  8
0
  6
Continuous
 62
     7
370
    25
100
AcDbVertex
100
AcDb2dVertex
 10
203.7448204796
 20
167.8404607616
 30
0.0
  0
VERTEX
  5
18D
330
17A
100
AcDbEntity
  8
0
  6
Continuous
 62
     7
370
    25
100
AcDbVertex
100
AcDb2dVertex
 10
204.6226553529
 20
167.8647573121
 30
0.0
  0
VERTEX
  5
18E
330
17A
100
AcDbEntity
  8
0
  6
Continuous
 62
     7
370
    25
100
AcDbVertex
100
AcDb2dVertex
 10
205.504405497
 20
167.9113917794
 30
0.0
  0
VERTEX
  5
18F
330
17A
100
AcDbEntity
  8
0
  6
Continuous
 62
     7
370
    25
100
AcDbVertex
100
AcDb2dVertex
 10
206.3887113174
 20
167.9802922564
 30
0.0
  0
VERTEX
  5
190
330
17A
100
AcDbEntity
  8
0
  6
Continuous
 62
     7
370
    25
100
AcDbVertex
100
AcDb2dVertex
 10
207.2742092784
 20
168.0713525038
 30
0.0
  0
VERTEX
  5
191
330
17A
100
AcDbEntity
  8
0
  6
Continuous
 62
     7
370
    25
100
AcDbVertex
100
AcDb2dVertex
 10
208.1595340063
 20
168.1844321132
 30
0.0
  0
VERTEX
  5
192
330
17A
100
AcDbEntity
  8
0
  6
Continuous
 62
     7
370
    25
100
AcDbVertex
100
AcDb2dVertex
 10
209.0433203947
 20
168.319356724
 30
0.0
  0
VERTEX
  5
193
330
17A
100
AcDbEntity
  8
0
  6
Continuous
 62
     7
370
    25
100
AcDbVertex
100
AcDb2dVertex
 10
209.9242057089
 20
168.4759182923
 30
0.0
  0
VERTEX
  5
194
330
17A
100
AcDbEntity
  8
0
  6
Continuous
 62
     7
370
    25
100
AcDbVertex
100
AcDb2dVertex
 10
210.8008316878
 20
168.6538754114
 30
0.0
  0
VERTEX
  5
195
330
17A
100
AcDbEntity
  8
0
  6
Continuous
 62
     7
370
    25
100
AcDbVertex
100
AcDb2dVertex
 10
211.6718466374
 20
168.8529536844
 30
0.0
  0
VERTEX
  5
196
330
17A
100
AcDbEntity
  8
0
  6
Continuous
 62
     7
370
    25
100
AcDbVertex
100
AcDb2dVertex
 10
212.535907516
 20
169.0728461471
 30
0.0
  0
VERTEX
  5
197
330
17A
100
AcDbEntity
  8
0
  6
Continuous
 62
     7
370
    25
100
AcDbVertex
100
AcDb2dVertex
 10
213.3916820042
 20
169.3132137411
 30
0.0
  0
VERTEX
  5
198
330
17A
100
AcDbEntity
  8
0
  6
Continuous
 62
     7
370
    25
100
AcDbVertex
100
AcDb2dVertex
 10
214.2378505599
 20
169.5736858371
 30
0.0
  0
VERTEX
  5
199
330
17A
100
AcDbEntity
  8
0
  6
Continuous
 62
     7
370
    25
100
AcDbVertex
100
AcDb2dVertex
 10
215.0731084524
 20
169.853860806
 30
0.0
  0
VERTEX
  5
19A
330
17A
100
AcDbEntity
  8
0
  6
Continuous
 62
     7
370
    25
100
AcDbVertex
100
AcDb2dVertex
 10
215.8961677747
 20
170.1533066383
 30
0.0
  0
VERTEX
  5
19B
330
17A
100
AcDbEntity
  8
0
  6
Continuous
 62
     7
370
    25
100
AcDbVertex
100
AcDb2dVertex
 10
216.7057594289
 20
170.4715616101
 30
0.0
  0
VERTEX
  5
19C
330
17A
100
AcDbEntity
  8
0
  6
Continuous
 62
     7
370
    25
100
AcDbVertex
100
AcDb2dVertex
 10
217.5006350833
 20
170.8081349955
 30
0.0
  0
VERTEX
  5
19D
330
17A
100
AcDbEntity
  8
0
  6
Continuous
 62
     7
370
    25
100
AcDbVertex
100
AcDb2dVertex
 10
218.2795690974
 20
171.1625078227
 30
0.0
  0
VERTEX
  5
19E
330
17A
100
AcDbEntity
  8
0
  6
Continuous
 62
     7
370
    25
100
AcDbVertex
100
AcDb2dVertex
 10
219.0413604112
 20
171.5341336744
 30
0.0
  0
VERTEX
  5
19F
330
17A
100
AcDbEntity
  8
0
  6
Continuous
 62
     7
370
    25
100
AcDbVertex
100
AcDb2dVertex
 10
219.784834398
 20
171.9224395305
 30
0.0
  0
VERTEX
  5
1A0
330
17A
100
AcDbEntity
  8
0
  6
Continuous
 62
     7
370
    25
100
AcDbVertex
100
AcDb2dVertex
 10
220.5088446745
 20
172.3268266515
 30
0.0
  0
VERTEX
  5
1A1
330
17A
100
AcDbEntity
  8
0
  6
Continuous
 62
     7
370
    25
100
AcDbVertex
100
AcDb2dVertex
 10
221.2122748695
 20
172.7466715019
 30
0.0
  0
VERTEX
  5
1A2
330
17A
100
AcDbEntity
  8
0
  6
Continuous
 62
     7
370
    25
100
AcDbVertex
100
AcDb2dVertex
 10
221.8940403446
 20
173.1813267112
 30
0.0
  0
VERTEX
  5
1A3
330
17A
100
AcDbEntity
  8
0
  6
Continuous
 62
     7
370
    25
100
AcDbVertex
100
AcDb2dVertex
 10
222.5530898669
 20
173.6301220726
 30
0.0
  0
VERTEX
  5
1A4
330
17A
100
AcDbEntity
  8
0
  6
Continuous
 62
     7
370
    25
100
AcDbVertex
100
AcDb2dVertex
 10
223.1884072297
 20
174.0923655763
 30
0.0
  0
VERTEX
  5
1A5
330
17A
100
AcDbEntity
  8
0
  6
Continuous
 62
     7
370
    25
100
AcDbVertex
100
AcDb2dVertex
 10
223.7990128197
 20
174.5673444762
 30
0.0
  0
VERTEX
  5
1A6
330
17A
100
AcDbEntity
  8
0
  6
Continuous
 62
     7
370
    25
100
AcDbVertex
100
AcDb2dVertex
 10
224.3839651273
 20
175.0543263893
 30
0.0
  0
VERTEX
  5
1A7
330
17A
100
AcDbEntity
  8
0
  6
Continuous
 62
     7
370
    25
100
AcDbVertex
100
AcDb2dVertex
 10
224.9423621986
 20
175.5525604248
 30
0.0
  0
VERTEX
  5
1A8
330
17A
100
AcDbEntity
  8
0
  6
Continuous
 62
     7
370
    25
100
AcDbVertex
100
AcDb2dVertex
 10
225.4733430257
 20
176.0612783419
 30
0.0
  0
VERTEX
  5
1A9
330
17A
100
AcDbEntity
  8
0
  6
Continuous
 62
     7
370
    25
100
AcDbVertex
100
AcDb2dVertex
 10
225.9760888746
 20
176.5796957346
 30
0.0
  0
VERTEX
  5
1AA
330
17A
100
AcDbEntity
  8
0
  6
Continuous
 62
     7
370
    25
100
AcDbVertex
100
AcDb2dVertex
 10
226.4498245477
 20
177.1070132406
 30
0.0
  0
VERTEX
  5
1AB
330
17A
100
AcDbEntity
  8
0
  6
Continuous
 62
     7
370
    25
100
AcDbVertex
100
AcDb2dVertex
 10
226.8938195789
 20
177.6424177747
 30
0.0
  0
VERTEX
  5
1AC
330
17A
100
AcDbEntity
  8
0
  6
Continuous
 62
     7
370
    25
100
AcDbVertex
100
AcDb2dVertex
 10
227.30738936
 20
178.1850837818
 30
0.0
  0
VERTEX
  5
1AD
330
17A
100
AcDbEntity
  8
0
  6
Continuous
 62
     7
370
    25
100
AcDbVertex
100
AcDb2dVertex
 10
227.6898961965
 20
178.7341745104
 30
0.0
  0
VERTEX
  5
1AE
330
17A
100
AcDbEntity
  8
0
  6
Continuous
 62
     7
370
    25
100
AcDbVertex
100
AcDb2dVertex
 10
228.0407502905
 20
179.2888433022
 30
0.0
  0
VERTEX
  5
1AF
330
17A
100
AcDbEntity
  8
0
  6
Continuous
 62
     7
370
    25
100
AcDbVertex
100
AcDb2dVertex
 10
228.3594106504
 20
179.8482348984
 30
0.0
  0
VERTEX
  5
1B0
330
17A
100
AcDbEntity
  8
0
  6
Continuous
 62
     7
370
    25
100
AcDbVertex
100
AcDb2dVertex
 10
228.6453859251
 20
180.4114867574
 30
0.0
  0
VERTEX
  5
1B1
330
17A
100
AcDbEntity
  8
0
  6
Continuous
 62
     7
370
    25
100
AcDbVertex
100
AcDb2dVertex
 10
228.8982351614
 20
180.9777303859
 30
0.0
  0
VERTEX
  5
1B2
330
17A
100
AcDbEntity
  8
0
  6
Continuous
 62
     7
370
    25
100
AcDbVertex
100
AcDb2dVertex
 10
229.1175684841
 20
181.5460926771
 30
0.0
  0
VERTEX
  5
1B3
330
17A
100
AcDbEntity
  8
0
  6
Continuous
 62
     7
370
    25
100
AcDbVertex
100
AcDb2dVertex
 10
229.3030476971
 20
182.1156972577
 30
0.0
  0
VERTEX
  5
1B4
330
17A
100
AcDbEntity
  8
0
  6
Continuous
 62
     7
370
    25
100
AcDbVertex
100
AcDb2dVertex
 10
229.4543868049
 20
182.6856658385
 30
0.0
  0
VERTEX
  5
1B5
330
17A
100
AcDbEntity
  8
0
  6
Continuous
 62
     7
370
    25
100
AcDbVertex
100
AcDb2dVertex
 10
229.5713524536
 20
183.2551195695
 30
0.0
  0
VERTEX
  5
1B6
330
17A
100
AcDbEntity
  8
0
  6
Continuous
 62
     7
370
    25
100
AcDbVertex
100
AcDb2dVertex
 10
229.6537642907
 20
183.8231803942
 30
0.0
  0
VERTEX
  5
1B7
330
17A
100
AcDbEntity
  8
0
  6
Continuous
 62
     7
370
    25
100
AcDbVertex
100
AcDb2dVertex
 10
229.701495243
 20
184.388972404
 30
0.0
  0
VERTEX
  5
1B8
330
17A
100
AcDbEntity
  8
0
  6
Continuous
 62
     7
370
    25
100
AcDbVertex
100
AcDb2dVertex
 10
229.7144717129
 20
184.9516231886
 30
0.0
  0
VERTEX
  5
1B9
330
17A
100
AcDbEntity
  8
0
  6
Continuous
 62
     7
370
    25
100
AcDbVertex
100
AcDb2dVertex
 10
229.6926736916
 20
185.5102651813
 30
0.0
  0
VERTEX
  5
1BA
330
17A
100
AcDbEntity
  8
0
  6
Continuous
 62
     7
370
    25
100
AcDbVertex
100
AcDb2dVertex
 10
229.63613479
 20
186.0640369966
 30
0.0
  0
VERTEX
  5
1BB
330
17A
100
AcDbEntity
  8
0
  6
Continuous
 62
     7
370
    25
100
AcDbVertex
100
AcDb2dVertex
 10
229.5449421872
 20
186.6120847586
 30
0.0
  0
VERTEX
  5
1BC
330
17A
100
AcDbEntity
  8
0
  6
Continuous
 62
     7
370
    25
100
AcDbVertex
100
AcDb2dVertex
 10
229.4192364954
 20
187.1535634173
 30
0.0
  0
VERTEX
  5
1BD
330
17A
100
AcDbEntity
  8
0
  6
Continuous
 62
     7
370
    25
100
AcDbVertex
100
AcDb2dVertex
 10
229.2592115437
 20
187.6876380519
 30
0.0
  0
VERTEX
  5
1BE
330
17A
100
AcDbEntity
  8
0
  6
Continuous
 62
     7
370
    25
100
AcDbVertex
100
AcDb2dVertex
 10
229.065114079
 20
188.213485158
 30
0.0
  0
VERTEX
  5
1BF
330
17A
100
AcDbEntity
  8
0
  6
Continuous
 62
     7
370
    25
100
AcDbVertex
100
AcDb2dVertex
 10
228.8372433855
 20
188.7302939174
 30
0.0
  0
VERTEX
  5
1C0
330
17A
100
AcDbEntity
  8
0
  6
Continuous
 62
     7
370
    25
100
AcDbVertex
100
AcDb2dVertex
 10
228.5759508233
 20
189.2372674485
 30
0.0
  0
VERTEX
  5
1C1
330
17A
100
AcDbEntity
  8
0
  6
Continuous
 62
     7
370
    25
100
AcDbVertex
100
AcDb2dVertex
 10
228.2816392866
 20
189.733624035
 30
0.0
  0
VERTEX
  5
1C2
330
17A
100
AcDbEntity
  8
0
  6
Continuous
 62
     7
370
    25
100
AcDbVertex
100
AcDb2dVertex
 10
227.9547625825
 20
190.2185983308
 30
0.0
  0
VERTEX
  5
1C3
330
17A
100
AcDbEntity
  8
0
  6
Continuous
 62
     7
370
    25
100
AcDbVertex
100
AcDb2dVertex
 10
227.5958247311
 20
190.6914425408
 30
0.0
  0
VERTEX
  5
1C4
330
17A
100
AcDbEntity
  8
0
  6
Continuous
 62
     7
370
    25
100
AcDbVertex
100
AcDb2dVertex
 10
227.2053791886
 20
191.1514275735
 30
0.0
  0
VERTEX
  5
1C5
330
17A
100
AcDbEntity
  8
0
  6
Continuous
 62
     7
370
    25
100
AcDbVertex
100
AcDb2dVertex
 10
226.7840279937
 20
191.5978441653
 30
0.0
  0
VERTEX
  5
1C6
330
17A
100
AcDbEntity
  8
0
  6
Continuous
 62
     7
370
    25
100
AcDbVertex
100
AcDb2dVertex
 10
226.3324208395
 20
192.0300039742
 30
0.0
  0
VERTEX
  5
1C7
330
17A
100
AcDbEntity
  8
0
  6
Continuous
 62
     7
370
    25
100
AcDbVertex
100
AcDb2dVertex
 10
225.8512540714
 20
192.4472406411
 30
0.0
  0
VERTEX
  5
1C8
330
17A
100
AcDbEntity
  8
0
  6
Continuous
 62
     7
370
    25
100
AcDbVertex
100
AcDb2dVertex
 10
225.3412696136
 20
192.8489108173
 30
0.0
  0
VERTEX
  5
1C9
330
17A
100
AcDbEntity
  8
0
  6
Continuous
 62
     7
370
    25
100
AcDbVertex
100
AcDb2dVertex
 10
224.8032538254
 20
193.2343951564
 30
0.0
  0
VERTEX
  5
1CA
330
17A
100
AcDbEntity
  8
0
  6
Continuous
 62
     7
370
    25
100
AcDbVertex
100
AcDb2dVertex
 10
224.2380362879
 20
193.6030992697
 30
0.0
  0
VERTEX
  5
1CB
330
17A
100
AcDbEntity
  8
0
  6
Continuous
 62
     7
370
    25
100
AcDbVertex
100
AcDb2dVertex
 10
223.6464885258
 20
193.9544546419
 30
0.0
  0
VERTEX
  5
1CC
330
17A
100
AcDbEntity
  8
0
  6
Continuous
 62
     7
370
    25
100
AcDbVertex
100
AcDb2dVertex
 10
223.5941012016
 20
193.984019732
 30
0.0
  0
SEQEND
  5
1CD
330
17A
100
AcDbEntity
  8
0
  6
Continuous
 62
     7
370
    25
  0
POLYLINE
  5
1CE
330
A
100
AcDbEntity
  8
0
  6
Continuous
 62
     7
370
    25
100
AcDb2dPolyline
 66
     1
 10
0.0
 20
0.0
 30
0.0
 75
     5
  0
VERTEX
  5
1CF
330
1CE
100
AcDbEntity
  8
0
  6
Continuous
 62
     7
370
    25
100
AcDbVertex
100
AcDb2dVertex
 10
187.6569534171
 20
187.340396613
 30
0.0
  0
VERTEX
  5
1D0
330
1CE
100
AcDbEntity
  8
0
  6
Continuous
 62
     7
370
    25
100
AcDbVertex
100
AcDb2dVertex
 10
187.4299022684
 20
187.061113504
 30
0.0
  0
VERTEX
  5
1D1
330
1CE
100
AcDbEntity
  8
0
  6
Continuous
 62
     7
370
    25
100
AcDbVertex
100
AcDb2dVertex
 10
187.0163324872
 20
186.5184474968
 30
0.0
  0
VERTEX
  5
1D2
330
1CE
100
AcDbEntity
  8
0
  6
Continuous
 62
     7
370
    25
100
AcDbVertex
100
AcDb2dVertex
 10
186.6338256507
 20
185.9693567682
 30
0.0
  0
VERTEX
  5
1D3
330
1CE
100
AcDbEntity
  8
0
  6
Continuous
 62
     7
370
    25
100
AcDbVertex
100
AcDb2dVertex
 10
186.2829715567
 20
185.4146879764
 30
0.0
  0
VERTEX
  5
1D4
330
1CE
100
AcDbEntity
  8
0
  6
Continuous
 62
     7
370
    25
100
AcDbVertex
100
AcDb2dVertex
 10
185.9643111968
 20
184.8552963803
 30
0.0
  0
VERTEX
  5
1D5
330
1CE
100
AcDbEntity
  8
0
  6
Continuous
 62
     7
370
    25
100
AcDbVertex
100
AcDb2dVertex
 10
185.6783359221
 20
184.2920445212
 30
0.0
  0
VERTEX
  5
1D6
330
1CE
100
AcDbEntity
  8
0
  6
Continuous
 62
     7
370
    25
100
AcDbVertex
100
AcDb2dVertex
 10
185.4254866859
 20
183.7258008927
 30
0.0
  0
VERTEX
  5
1D7
330
1CE
100
AcDbEntity
  8
0
  6
Continuous
 62
     7
370
    25
100
AcDbVertex
100
AcDb2dVertex
 10
185.2061533632
 20
183.1574386015
 30
0.0
  0
VERTEX
  5
1D8
330
1CE
100
AcDbEntity
  8
0
  6
Continuous
 62
     7
370
    25
100
AcDbVertex
100
AcDb2dVertex
 10
185.0206741502
 20
182.587834021
 30
0.0
  0
VERTEX
  5
1D9
330
1CE
100
AcDbEntity
  8
0
  6
Continuous
 62
     7
370
    25
100
AcDbVertex
100
AcDb2dVertex
 10
184.8693350423
 20
182.0178654401
 30
0.0
  0
VERTEX
  5
1DA
330
1CE
100
AcDbEntity
  8
0
  6
Continuous
 62
     7
370
    25
100
AcDbVertex
100
AcDb2dVertex
 10
184.7523693936
 20
181.4484117091
 30
0.0
  0
VERTEX
  5
1DB
330
1CE
100
AcDbEntity
  8
0
  6
Continuous
 62
     7
370
    25
100
AcDbVertex
100
AcDb2dVertex
 10
184.6699575566
 20
180.8803508844
 30
0.0
  0
VERTEX
  5
1DC
330
1CE
100
AcDbEntity
  8
0
  6
Continuous
 62
     7
370
    25
100
AcDbVertex
100
AcDb2dVertex
 10
184.6222266043
 20
180.3145588747
 30
0.0
  0
VERTEX
  5
1DD
330
1CE
100
AcDbEntity
  8
0
  6
Continuous
 62
     7
370
    25
100
AcDbVertex
100
AcDb2dVertex
 10
184.6092501344
 20
179.75190809
 30
0.0
  0
VERTEX
  5
1DE
330
1CE
100
AcDbEntity
  8
0
  6
Continuous
 62
     7
370
    25
100
AcDbVertex
100
AcDb2dVertex
 10
184.6310481557
 20
179.1932660973
 30
0.0
  0
VERTEX
  5
1DF
330
1CE
100
AcDbEntity
  8
0
  6
Continuous
 62
     7
370
    25
100
AcDbVertex
100
AcDb2dVertex
 10
184.6875870572
 20
178.639494282
 30
0.0
  0
VERTEX
  5
1E0
330
1CE
100
AcDbEntity
  8
0
  6
Continuous
 62
     7
370
    25
100
AcDbVertex
100
AcDb2dVertex
 10
184.7787796601
 20
178.09144652
 30
0.0
  0
VERTEX
  5
1E1
330
1CE
100
AcDbEntity
  8
0
  6
Continuous
 62
     7
370
    25
100
AcDbVertex
100
AcDb2dVertex
 10
184.9044853519
 20
177.5499678613
 30
0.0
  0
VERTEX
  5
1E2
330
1CE
100
AcDbEntity
  8
0
  6
Continuous
 62
     7
370
    25
100
AcDbVertex
100
AcDb2dVertex
 10
185.0645103036
 20
177.0158932267
 30
0.0
  0
VERTEX
  5
1E3
330
1CE
100
AcDbEntity
  8
0
  6
Continuous
 62
     7
370
    25
100
AcDbVertex
100
AcDb2dVertex
 10
185.2586077683
 20
176.4900461207
 30
0.0
  0
VERTEX
  5
1E4
330
1CE
100
AcDbEntity
  8
0
  6
Continuous
 62
     7
370
    25
100
AcDbVertex
100
AcDb2dVertex
 10
185.4864784618
 20
175.9732373612
 30
0.0
  0
VERTEX
  5
1E5
330
1CE
100
AcDbEntity
  8
0
  6
Continuous
 62
     7
370
    25
100
AcDbVertex
100
AcDb2dVertex
 10
185.7477710239
 20
175.4662638301
 30
0.0
  0
VERTEX
  5
1E6
330
1CE
100
AcDbEntity
  8
0
  6
Continuous
 62
     7
370
    25
100
AcDbVertex
100
AcDb2dVertex
 10
186.0420825606
 20
174.9699072437
 30
0.0
  0
VERTEX
  5
1E7
330
1CE
100
AcDbEntity
  8
0
  6
Continuous
 62
     7
370
    25
100
AcDbVertex
100
AcDb2dVertex
 10
186.3689592647
 20
174.4849329478
 30
0.0
  0
VERTEX
  5
1E8
330
1CE
100
AcDbEntity
  8
0
  6
Continuous
 62
     7
370
    25
100
AcDbVertex
100
AcDb2dVertex
 10
186.7278971161
 20
174.0120887378
 30
0.0
  0
VERTEX
  5
1E9
330
1CE
100
AcDbEntity
  8
0
  6
Continuous
 62
     7
370
    25
100
AcDbVertex
100
AcDb2dVertex
 10
187.1183426586
 20
173.5521037051
 30
0.0
  0
VERTEX
  5
1EA
330
1CE
100
AcDbEntity
  8
0
  6
Continuous
 62
     7
370
    25
100
AcDbVertex
100
AcDb2dVertex
 10
187.5396938535
 20
173.1056871133
 30
0.0
  0
VERTEX
  5
1EB
330
1CE
100
AcDbEntity
  8
0
  6
Continuous
 62
     7
370
    25
100
AcDbVertex
100
AcDb2dVertex
 10
187.9913010078
 20
172.6735273044
 30
0.0
  0
VERTEX
  5
1EC
330
1CE
100
AcDbEntity
  8
0
  6
Continuous
 62
     7
370
    25
100
AcDbVertex
100
AcDb2dVertex
 10
188.4724677759
 20
172.2562906375
 30
0.0
  0
VERTEX
  5
1ED
330
1CE
100
AcDbEntity
  8
0
  6
Continuous
 62
     7
370
    25
100
AcDbVertex
100
AcDb2dVertex
 10
188.9824522336
 20
171.8546204613
 30
0.0
  0
VERTEX
  5
1EE
330
1CE
100
AcDbEntity
  8
0
  6
Continuous
 62
     7
370
    25
100
AcDbVertex
100
AcDb2dVertex
 10
189.5204680219
 20
171.4691361222
 30
0.0
  0
VERTEX
  5
1EF
330
1CE
100
AcDbEntity
  8
0
  6
Continuous
 62
     7
370
    25
100
AcDbVertex
100
AcDb2dVertex
 10
190.0856855593
 20
171.100432009
 30
0.0
  0
VERTEX
  5
1F0
330
1CE
100
AcDbEntity
  8
0
  6
Continuous
 62
     7
370
    25
100
AcDbVertex
100
AcDb2dVertex
 10
190.6772333215
 20
170.7490766367
 30
0.0
  0
SEQEND
  5
1F1
330
1CE
100
AcDbEntity
  8
0
  6
Continuous
 62
     7
370
    25
  0
POLYLINE
  5
1F2
330
A
100
AcDbEntity
  8
0
  6
Continuous
 62
     7
370
    25
100
AcDb2dPolyline
 66
     1
 10
0.0
 20
0.0
 30
0.0
 75
     5
  0
VERTEX
  5
1F3
330
1F2
100
AcDbEntity
  8
0
  6
Continuous
 62
     7
370
    25
100
AcDbVertex
100
AcDb2dVertex
 10
189.3357366211
 20
149.8152128274
 30
0.0
  0
VERTEX
  5
1F4
330
1F2
100
AcDbEntity
  8
0
  6
Continuous
 62
     7
370
    25
100
AcDbVertex
100
AcDb2dVertex
 10
190.0320588158
 20
149.4367803042
 30
0.0
  0
VERTEX
  5
1F5
330
1F2
100
AcDbEntity
  8
0
  6
Continuous
 62
     7
370
    25
100
AcDbVertex
100
AcDb2dVertex
 10
190.7529611349
 20
149.0766949983
 30
0.0
  0
VERTEX
  5
1F6
330
1F2
100
AcDbEntity
  8
0
  6
Continuous
 62
     7
370
    25
100
AcDbVertex
100
AcDb2dVertex
 10
191.4975749472
 20
148.7353907846
 30
0.0
  0
VERTEX
  5
1F7
330
1F2
100
AcDbEntity
  8
0
  6
Continuous
 62
     7
370
    25
100
AcDbVertex
100
AcDb2dVertex
 10
192.2650030511
 20
148.4132789081
 30
0.0
  0
VERTEX
  5
1F8
330
1F2
100
AcDbEntity
  8
0
  6
Continuous
 62
     7
370
    25
100
AcDbVertex
100
AcDb2dVertex
 10
193.0543207556
 20
148.1107474884
 30
0.0
  0
VERTEX
  5
1F9
330
1F2
100
AcDbEntity
  8
0
  6
Continuous
 62
     7
370
    25
100
AcDbVertex
100
AcDb2dVertex
 10
193.8645769942
 20
147.8281610523
 30
0.0
  0
VERTEX
  5
1FA
330
1F2
100
AcDbEntity
  8
0
  6
Continuous
 62
     7
370
    25
100
AcDbVertex
100
AcDb2dVertex
 10
194.6947954712
 20
147.5658600946
 30
0.0
  0
VERTEX
  5
1FB
330
1F2
100
AcDbEntity
  8
0
  6
Continuous
 62
     7
370
    25
100
AcDbVertex
100
AcDb2dVertex
 10
195.5439758382
 20
147.3241606674
 30
0.0
  0
VERTEX
  5
1FC
330
1F2
100
AcDbEntity
  8
0
  6
Continuous
 62
     7
370
    25
100
AcDbVertex
100
AcDb2dVertex
 10
196.4110948989
 20
147.1033539998
 30
0.0
  0
VERTEX
  5
1FD
330
1F2
100
AcDbEntity
  8
0
  6
Continuous
 62
     7
370
    25
100
AcDbVertex
100
AcDb2dVertex
 10
197.2951078423
 20
146.9037061464
 30
0.0
  0
VERTEX
  5
1FE
330
1F2
100
AcDbEntity
  8
0
  6
Continuous
 62
     7
370
    25
100
AcDbVertex
100
AcDb2dVertex
 10
198.1949495018
 20
146.7254576676
 30
0.0
  0
VERTEX
  5
1FF
330
1F2
100
AcDbEntity
  8
0
  6
Continuous
 62
     7
370
    25
100
AcDbVertex
100
AcDb2dVertex
 10
199.1095356381
 20
146.5688233387
 30
0.0
  0
VERTEX
  5
200
330
1F2
100
AcDbEntity
  8
0
  6
Continuous
 62
     7
370
    25
100
AcDbVertex
100
AcDb2dVertex
 10
200.0377642463
 20
146.433991892
 30
0.0
  0
VERTEX
  5
201
330
1F2
100
AcDbEntity
  8
0
  6
Continuous
 62
     7
370
    25
100
AcDbVertex
100
AcDb2dVertex
 10
200.9785168832
 20
146.3211257889
 30
0.0
  0
VERTEX
  5
202
330
1F2
100
AcDbEntity
  8
0
  6
Continuous
 62
     7
370
    25
100
AcDbVertex
100
AcDb2dVertex
 10
201.9306600151
 20
146.2303610242
 30
0.0
  0
VERTEX
  5
203
330
1F2
100
AcDbEntity
  8
0
  6
Continuous
 62
     7
370
    25
100
AcDbVertex
100
AcDb2dVertex
 10
202.8930463836
 20
146.1618069624
 30
0.0
  0
VERTEX
  5
204
330
1F2
100
AcDbEntity
  8
0
  6
Continuous
 62
     7
370
    25
100
AcDbVertex
100
AcDb2dVertex
 10
203.8645163883
 20
146.1155462058
 30
0.0
  0
VERTEX
  5
205
330
1F2
100
AcDbEntity
  8
0
  6
Continuous
 62
     7
370
    25
100
AcDbVertex
100
AcDb2dVertex
 10
204.8438994834
 20
146.091634495
 30
0.0
  0
VERTEX
  5
206
330
1F2
100
AcDbEntity
  8
0
  6
Continuous
 62
     7
370
    25
100
AcDbVertex
100
AcDb2dVertex
 10
205.8300155885
 20
146.0901006417
 30
0.0
  0
VERTEX
  5
207
330
1F2
100
AcDbEntity
  8
0
  6
Continuous
 62
     7
370
    25
100
AcDbVertex
100
AcDb2dVertex
 10
206.8216765105
 20
146.1109464942
 30
0.0
  0
VERTEX
  5
208
330
1F2
100
AcDbEntity
  8
0
  6
Continuous
 62
     7
370
    25
100
AcDbVertex
100
AcDb2dVertex
 10
207.8176873753
 20
146.1541469348
 30
0.0
  0
VERTEX
  5
209
330
1F2
100
AcDbEntity
  8
0
  6
Continuous
 62
     7
370
    25
100
AcDbVertex
100
AcDb2dVertex
 10
208.8168480674
 20
146.2196499103
 30
0.0
  0
VERTEX
  5
20A
330
1F2
100
AcDbEntity
  8
0
  6
Continuous
 62
     7
370
    25
100
AcDbVertex
100
AcDb2dVertex
 10
209.8179546759
 20
146.3073764948
 30
0.0
  0
VERTEX
  5
20B
330
1F2
100
AcDbEntity
  8
0
  6
Continuous
 62
     7
370
    25
100
AcDbVertex
100
AcDb2dVertex
 10
210.8198009454
 20
146.4172209845
 30
0.0
  0
VERTEX
  5
20C
330
1F2
100
AcDbEntity
  8
0
  6
Continuous
 62
     7
370
    25
100
AcDbVertex
100
AcDb2dVertex
 10
211.8211797291
 20
146.5490510254
 30
0.0
  0
VERTEX
  5
20D
330
1F2
100
AcDbEntity
  8
0
  6
Continuous
 62
     7
370
    25
100
AcDbVertex
100
AcDb2dVertex
 10
212.8208844436
 20
146.7027077726
 30
0.0
  0
VERTEX
  5
20E
330
1F2
100
AcDbEntity
  8
0
  6
Continuous
 62
     7
370
    25
100
AcDbVertex
100
AcDb2dVertex
 10
213.8177105226
 20
146.8780060816
 30
0.0
  0
VERTEX
  5
20F
330
1F2
100
AcDbEntity
  8
0
  6
Continuous
 62
     7
370
    25
100
AcDbVertex
100
AcDb2dVertex
 10
214.8104568683
 20
147.0747347317
 30
0.0
  0
VERTEX
  5
210
330
1F2
100
AcDbEntity
  8
0
  6
Continuous
 62
     7
370
    25
100
AcDbVertex
100
AcDb2dVertex
 10
215.7979272986
 20
147.2926566801
 30
0.0
  0
VERTEX
  5
211
330
1F2
100
AcDbEntity
  8
0
  6
Continuous
 62
     7
370
    25
100
AcDbVertex
100
AcDb2dVertex
 10
216.7789319887
 20
147.5315093479
 30
0.0
  0
VERTEX
  5
212
330
1F2
100
AcDbEntity
  8
0
  6
Continuous
 62
     7
370
    25
100
AcDbVertex
100
AcDb2dVertex
 10
217.7522889042
 20
147.7910049362
 30
0.0
  0
VERTEX
  5
213
330
1F2
100
AcDbEntity
  8
0
  6
Continuous
 62
     7
370
    25
100
AcDbVertex
100
AcDb2dVertex
 10
218.7168252259
 20
148.070830773
 30
0.0
  0
VERTEX
  5
214
330
1F2
100
AcDbEntity
  8
0
  6
Continuous
 62
     7
370
    25
100
AcDbVertex
100
AcDb2dVertex
 10
219.6713787626
 20
148.37064969
 30
0.0
  0
VERTEX
  5
215
330
1F2
100
AcDbEntity
  8
0
  6
Continuous
 62
     7
370
    25
100
AcDbVertex
100
AcDb2dVertex
 10
220.6147993518
 20
148.6901004288
 30
0.0
  0
VERTEX
  5
216
330
1F2
100
AcDbEntity
  8
0
  6
Continuous
 62
     7
370
    25
100
AcDbVertex
100
AcDb2dVertex
 10
221.545950245
 20
149.0287980761
 30
0.0
  0
VERTEX
  5
217
330
1F2
100
AcDbEntity
  8
0
  6
Continuous
 62
     7
370
    25
100
AcDbVertex
100
AcDb2dVertex
 10
222.4637094779
 20
149.3863345275
 30
0.0
  0
VERTEX
  5
218
330
1F2
100
AcDbEntity
  8
0
  6
Continuous
 62
     7
370
    25
100
AcDbVertex
100
AcDb2dVertex
 10
223.3669712223
 20
149.7622789797
 30
0.0
  0
VERTEX
  5
219
330
1F2
100
AcDbEntity
  8
0
  6
Continuous
 62
     7
370
    25
100
AcDbVertex
100
AcDb2dVertex
 10
224.2546471179
 20
150.1561784486
 30
0.0
  0
VERTEX
  5
21A
330
1F2
100
AcDbEntity
  8
0
  6
Continuous
 62
     7
370
    25
100
AcDbVertex
100
AcDb2dVertex
 10
225.1256675845
 20
150.5675583162
 30
0.0
  0
VERTEX
  5
21B
330
1F2
100
AcDbEntity
  8
0
  6
Continuous
 62
     7
370
    25
100
AcDbVertex
100
AcDb2dVertex
 10
225.9789831103
 20
150.9959229018
 30
0.0
  0
VERTEX
  5
21C
330
1F2
100
AcDbEntity
  8
0
  6
Continuous
 62
     7
370
    25
100
AcDbVertex
100
AcDb2dVertex
 10
226.8135655166
 20
151.4407560594
 30
0.0
  0
VERTEX
  5
21D
330
1F2
100
AcDbEntity
  8
0
  6
Continuous
 62
     7
370
    25
100
AcDbVertex
100
AcDb2dVertex
 10
227.6284091965
 20
151.9015217997
 30
0.0
  0
VERTEX
  5
21E
330
1F2
100
AcDbEntity
  8
0
  6
Continuous
 62
     7
370
    25
100
AcDbVertex
100
AcDb2dVertex
 10
228.4225323268
 20
152.3776649359
 30
0.0
  0
VERTEX
  5
21F
330
1F2
100
AcDbEntity
  8
0
  6
Continuous
 62
     7
370
    25
100
AcDbVertex
100
AcDb2dVertex
 10
229.1949780511
 20
152.8686117526
 30
0.0
  0
VERTEX
  5
220
330
1F2
100
AcDbEntity
  8
0
  6
Continuous
 62
     7
370
    25
100
AcDbVertex
100
AcDb2dVertex
 10
229.9448156324
 20
153.373770697
 30
0.0
  0
VERTEX
  5
221
330
1F2
100
AcDbEntity
  8
0
  6
Continuous
 62
     7
370
    25
100
AcDbVertex
100
AcDb2dVertex
 10
230.6711415749
 20
153.8925330921
 30
0.0
  0
VERTEX
  5
222
330
1F2
100
AcDbEntity
  8
0
  6
Continuous
 62
     7
370
    25
100
AcDbVertex
100
AcDb2dVertex
 10
231.3730807123
 20
154.4242738695
 30
0.0
  0
VERTEX
  5
223
330
1F2
100
AcDbEntity
  8
0
  6
Continuous
 62
     7
370
    25
100
AcDbVertex
100
AcDb2dVertex
 10
232.0497872626
 20
154.968352323
 30
0.0
  0
VERTEX
  5
224
330
1F2
100
AcDbEntity
  8
0
  6
Continuous
 62
     7
370
    25
100
AcDbVertex
100
AcDb2dVertex
 10
232.7004458472
 20
155.5241128805
 30
0.0
  0
VERTEX
  5
225
330
1F2
100
AcDbEntity
  8
0
  6
Continuous
 62
     7
370
    25
100
AcDbVertex
100
AcDb2dVertex
 10
233.3242724732
 20
156.0908858938
 30
0.0
  0
VERTEX
  5
226
330
1F2
100
AcDbEntity
  8
0
  6
Continuous
 62
     7
370
    25
100
AcDbVertex
100
AcDb2dVertex
 10
233.920515478
 20
156.6679884455
 30
0.0
  0
VERTEX
  5
227
330
1F2
100
AcDbEntity
  8
0
  6
Continuous
 62
     7
370
    25
100
AcDbVertex
100
AcDb2dVertex
 10
234.4884564353
 20
157.254725172
 30
0.0
  0
VERTEX
  5
228
330
1F2
100
AcDbEntity
  8
0
  6
Continuous
 62
     7
370
    25
100
AcDbVertex
100
AcDb2dVertex
 10
235.0274110204
 20
157.8503891013
 30
0.0
  0
VERTEX
  5
229
330
1F2
100
AcDbEntity
  8
0
  6
Continuous
 62
     7
370
    25
100
AcDbVertex
100
AcDb2dVertex
 10
235.5367298352
 20
158.4542625047
 30
0.0
  0
VERTEX
  5
22A
330
1F2
100
AcDbEntity
  8
0
  6
Continuous
 62
     7
370
    25
100
AcDbVertex
100
AcDb2dVertex
 10
236.0157991899
 20
159.0656177617
 30
0.0
  0
VERTEX
  5
22B
330
1F2
100
AcDbEntity
  8
0
  6
Continuous
 62
     7
370
    25
100
AcDbVertex
100
AcDb2dVertex
 10
236.4640418435
 20
159.683718237
 30
0.0
  0
VERTEX
  5
22C
330
1F2
100
AcDbEntity
  8
0
  6
Continuous
 62
     7
370
    25
100
AcDbVertex
100
AcDb2dVertex
 10
236.8809176984
 20
160.3078191676
 30
0.0
  0
VERTEX
  5
22D
330
1F2
100
AcDbEntity
  8
0
  6
Continuous
 62
     7
370
    25
100
AcDbVertex
100
AcDb2dVertex
 10
237.2659244516
 20
160.9371685605
 30
0.0
  0
VERTEX
  5
22E
330
1F2
100
AcDbEntity
  8
0
  6
Continuous
 62
     7
370
    25
100
AcDbVertex
100
AcDb2dVertex
 10
237.6185982001
 20
161.5710080987
 30
0.0
  0
VERTEX
  5
22F
330
1F2
100
AcDbEntity
  8
0
  6
Continuous
 62
     7
370
    25
100
AcDbVertex
100
AcDb2dVertex
 10
237.9385139994
 20
162.2085740549
 30
0.0
  0
VERTEX
  5
230
330
1F2
100
AcDbEntity
  8
0
  6
Continuous
 62
     7
370
    25
100
AcDbVertex
100
AcDb2dVertex
 10
238.2252863759
 20
162.8490982118
 30
0.0
  0
VERTEX
  5
231
330
1F2
100
AcDbEntity
  8
0
  6
Continuous
 62
     7
370
    25
100
AcDbVertex
100
AcDb2dVertex
 10
238.4785697912
 20
163.4918087877
 30
0.0
  0
VERTEX
  5
232
330
1F2
100
AcDbEntity
  8
0
  6
Continuous
 62
     7
370
    25
100
AcDbVertex
100
AcDb2dVertex
 10
238.6980590586
 20
164.1359313663
 30
0.0
  0
VERTEX
  5
233
330
1F2
100
AcDbEntity
  8
0
  6
Continuous
 62
     7
370
    25
100
AcDbVertex
100
AcDb2dVertex
 10
238.8834897106
 20
164.7806898302
 30
0.0
  0
VERTEX
  5
234
330
1F2
100
AcDbEntity
  8
0
  6
Continuous
 62
     7
370
    25
100
AcDbVertex
100
AcDb2dVertex
 10
239.0346383176
 20
165.4253072956
 30
0.0
  0
VERTEX
  5
235
330
1F2
100
AcDbEntity
  8
0
  6
Continuous
 62
     7
370
    25
100
AcDbVertex
100
AcDb2dVertex
 10
239.1513227574
 20
166.0690070487
 30
0.0
  0
VERTEX
  5
236
330
1F2
100
AcDbEntity
  8
0
  6
Continuous
 62
     7
370
    25
100
AcDbVertex
100
AcDb2dVertex
 10
239.2334024344
 20
166.7110134814
 30
0.0
  0
VERTEX
  5
237
330
1F2
100
AcDbEntity
  8
0
  6
Continuous
 62
     7
370
    25
100
AcDbVertex
100
AcDb2dVertex
 10
239.2807784488
 20
167.350553026
 30
0.0
  0
VERTEX
  5
238
330
1F2
100
AcDbEntity
  8
0
  6
Continuous
 62
     7
370
    25
100
AcDbVertex
100
AcDb2dVertex
 10
239.2933937163
 20
167.9868550871
 30
0.0
  0
VERTEX
  5
239
330
1F2
100
AcDbEntity
  8
0
  6
Continuous
 62
     7
370
    25
100
AcDbVertex
100
AcDb2dVertex
 10
239.2712330365
 20
168.6191529703
 30
0.0
  0
VERTEX
  5
23A
330
1F2
100
AcDbEntity
  8
0
  6
Continuous
 62
     7
370
    25
100
AcDbVertex
100
AcDb2dVertex
 10
239.2143231113
 20
169.2466848059
 30
0.0
  0
VERTEX
  5
23B
330
1F2
100
AcDbEntity
  8
0
  6
Continuous
 62
     7
370
    25
100
AcDbVertex
100
AcDb2dVertex
 10
239.1227325126
 20
169.868694467
 30
0.0
  0
VERTEX
  5
23C
330
1F2
100
AcDbEntity
  8
0
  6
Continuous
 62
     7
370
    25
100
AcDbVertex
100
AcDb2dVertex
 10
239.1080317299
 20
169.9504842593
 30
0.0
  0
SEQEND
  5
23D
330
1F2
100
AcDbEntity
  8
0
  6
Continuous
 62
     7
370
    25
  0
POLYLINE
  5
23E
330
A
100
AcDbEntity
  8
0
  6
Continuous
 62
     7
370
    25
100
AcDb2dPolyline
 66
     1
 10
0.0
 20
0.0
 30
0.0
 75
     5
  0
VERTEX
  5
23F
330
23E
100
AcDbEntity
  8
0
  6
Continuous
 62
     7
370
    25
100
AcDbVertex
100
AcDb2dVertex
 10
181.760792644
 20
159.3488236687
 30
0.0
  0
VERTEX
  5
240
330
23E
100
AcDbEntity
  8
0
  6
Continuous
 62
     7
370
    25
100
AcDbVertex
100
AcDb2dVertex
 10
181.7996769269
 20
159.1499481716
 30
0.0
  0
VERTEX
  5
241
330
23E
100
AcDbEntity
  8
0
  6
Continuous
 62
     7
370
    25
100
AcDbVertex
100
AcDb2dVertex
 10
181.9430685879
 20
158.5376247082
 30
0.0
  0
VERTEX
  5
242
330
23E
100
AcDbEntity
  8
0
  6
Continuous
 62
     7
370
    25
100
AcDbVertex
100
AcDb2dVertex
 10
182.1207869765
 20
157.9326826535
 30
0.0
  0
VERTEX
  5
243
330
23E
100
AcDbEntity
  8
0
  6
Continuous
 62
     7
370
    25
100
AcDbVertex
100
AcDb2dVertex
 10
182.3326179558
 20
157.3358509156
 30
0.0
  0
VERTEX
  5
244
330
23E
100
AcDbEntity
  8
0
  6
Continuous
 62
     7
370
    25
100
AcDbVertex
100
AcDb2dVertex
 10
182.5783062861
 20
156.7478486303
 30
0.0
  0
VERTEX
  5
245
330
23E
100
AcDbEntity
  8
0
  6
Continuous
 62
     7
370
    25
100
AcDbVertex
100
AcDb2dVertex
 10
182.8575559321
 20
156.1693842945
 30
0.0
  0
VERTEX
  5
246
330
23E
100
AcDbEntity
  8
0
  6
Continuous
 62
     7
370
    25
100
AcDbVertex
100
AcDb2dVertex
 10
183.1700304196
 20
155.6011549127
 30
0.0
  0
VERTEX
  5
247
330
23E
100
AcDbEntity
  8
0
  6
Continuous
 62
     7
370
    25
100
AcDbVertex
100
AcDb2dVertex
 10
183.5153532412
 20
155.043845157
 30
0.0
  0
VERTEX
  5
248
330
23E
100
AcDbEntity
  8
0
  6
Continuous
 62
     7
370
    25
100
AcDbVertex
100
AcDb2dVertex
 10
183.8931083099
 20
154.4981265422
 30
0.0
  0
VERTEX
  5
249
330
23E
100
AcDbEntity
  8
0
  6
Continuous
 62
     7
370
    25
100
AcDbVertex
100
AcDb2dVertex
 10
184.3028404602
 20
153.9646566169
 30
0.0
  0
VERTEX
  5
24A
330
23E
100
AcDbEntity
  8
0
  6
Continuous
 62
     7
370
    25
100
AcDbVertex
100
AcDb2dVertex
 10
184.7440559968
 20
153.4440781706
 30
0.0
  0
VERTEX
  5
24B
330
23E
100
AcDbEntity
  8
0
  6
Continuous
 62
     7
370
    25
100
AcDbVertex
100
AcDb2dVertex
 10
185.2162232893
 20
152.93701846
 30
0.0
  0
VERTEX
  5
24C
330
23E
100
AcDbEntity
  8
0
  6
Continuous
 62
     7
370
    25
100
AcDbVertex
100
AcDb2dVertex
 10
185.7187734129
 20
152.4440884524
 30
0.0
  0
VERTEX
  5
24D
330
23E
100
AcDbEntity
  8
0
  6
Continuous
 62
     7
370
    25
100
AcDbVertex
100
AcDb2dVertex
 10
186.2511008339
 20
151.9658820901
 30
0.0
  0
VERTEX
  5
24E
330
23E
100
AcDbEntity
  8
0
  6
Continuous
 62
     7
370
    25
100
AcDbVertex
100
AcDb2dVertex
 10
186.8125641391
 20
151.5029755746
 30
0.0
  0
VERTEX
  5
24F
330
23E
100
AcDbEntity
  8
0
  6
Continuous
 62
     7
370
    25
100
AcDbVertex
100
AcDb2dVertex
 10
187.4024868091
 20
151.0559266721
 30
0.0
  0
VERTEX
  5
250
330
23E
100
AcDbEntity
  8
0
  6
Continuous
 62
     7
370
    25
100
AcDbVertex
100
AcDb2dVertex
 10
188.0201580329
 20
150.6252740417
 30
0.0
  0
VERTEX
  5
251
330
23E
100
AcDbEntity
  8
0
  6
Continuous
 62
     7
370
    25
100
AcDbVertex
100
AcDb2dVertex
 10
188.6648335648
 20
150.2115365863
 30
0.0
  0
VERTEX
  5
252
330
23E
100
AcDbEntity
  8
0
  6
Continuous
 62
     7
370
    25
100
AcDbVertex
100
AcDb2dVertex
 10
189.3357366211
 20
149.8152128274
 30
0.0
  0
SEQEND
  5
253
330
23E
100
AcDbEntity
  8
0
  6
Continuous
 62
     7
370
    25
  0
POLYLINE
  5
254
330
A
100
AcDbEntity
  8
0
  6
Continuous
 62
     7
370
    25
100
AcDb2dPolyline
 66
     1
 10
0.0
 20
0.0
 30
0.0
 75
     5
  0
VERTEX
  5
255
330
254
100
AcDbEntity
  8
0
  6
Continuous
 62
     7
370
    25
100
AcDbVertex
100
AcDb2dVertex
 10
198.4268976714
 20
134.0937552151
 30
0.0
  0
VERTEX
  5
256
330
254
100
AcDbEntity
  8
0
  6
Continuous
 62
     7
370
    25
100
AcDbVertex
100
AcDb2dVertex
 10
199.0269331197
 20
133.769835362
 30
0.0
  0
VERTEX
  5
257
330
254
100
AcDbEntity
  8
0
  6
Continuous
 62
     7
370
    25
100
AcDbVertex
100
AcDb2dVertex
 10
199.6513365428
 20
133.4642773112
 30
0.0
  0
VERTEX
  5
258
330
254
100
AcDbEntity
  8
0
  6
Continuous
 62
     7
370
    25
100
AcDbVertex
100
AcDb2dVertex
 10
200.299095156
 20
133.1775766789
 30
0.0
  0
VERTEX
  5
259
330
254
100
AcDbEntity
  8
0
  6
Continuous
 62
     7
370
    25
100
AcDbVertex
100
AcDb2dVertex
 10
200.9691582925
 20
132.9101984946
 30
0.0
  0
VERTEX
  5
25A
330
254
100
AcDbEntity
  8
0
  6
Continuous
 62
     7
370
    25
100
AcDbVertex
100
AcDb2dVertex
 10
201.6604391075
 20
132.6625764467
 30
0.0
  0
VERTEX
  5
25B
330
254
100
AcDbEntity
  8
0
  6
Continuous
 62
     7
370
    25
100
AcDbVertex
100
AcDb2dVertex
 10
202.3718163409
 20
132.4351121791
 30
0.0
  0
VERTEX
  5
25C
330
254
100
AcDbEntity
  8
0
  6
Continuous
 62
     7
370
    25
100
AcDbVertex
100
AcDb2dVertex
 10
203.1021361363
 20
132.2281746397
 30
0.0
  0
VERTEX
  5
25D
330
254
100
AcDbEntity
  8
0
  6
Continuous
 62
     7
370
    25
100
AcDbVertex
100
AcDb2dVertex
 10
203.8502139122
 20
132.0420994819
 30
0.0
  0
VERTEX
  5
25E
330
254
100
AcDbEntity
  8
0
  6
Continuous
 62
     7
370
    25
100
AcDbVertex
100
AcDb2dVertex
 10
204.6148362839
 20
131.8771885202
 30
0.0
  0
VERTEX
  5
25F
330
254
100
AcDbEntity
  8
0
  6
Continuous
 62
     7
370
    25
100
AcDbVertex
100
AcDb2dVertex
 10
205.3947630309
 20
131.7337092409
 30
0.0
  0
VERTEX
  5
260
330
254
100
AcDbEntity
  8
0
  6
Continuous
 62
     7
370
    25
100
AcDbVertex
100
AcDb2dVertex
 10
206.1887291094
 20
131.6118943679
 30
0.0
  0
VERTEX
  5
261
330
254
100
AcDbEntity
  8
0
  6
Continuous
 62
     7
370
    25
100
AcDbVertex
100
AcDb2dVertex
 10
206.9954467033
 20
131.5119414853
 30
0.0
  0
VERTEX
  5
262
330
254
100
AcDbEntity
  8
0
  6
Continuous
 62
     7
370
    25
100
AcDbVertex
100
AcDb2dVertex
 10
207.8136073139
 20
131.4340127171
 30
0.0
  0
VERTEX
  5
263
330
254
100
AcDbEntity
  8
0
  6
Continuous
 62
     7
370
    25
100
AcDbVertex
100
AcDb2dVertex
 10
208.6418838816
 20
131.3782344641
 30
0.0
  0
VERTEX
  5
264
330
254
100
AcDbEntity
  8
0
  6
Continuous
 62
     7
370
    25
100
AcDbVertex
100
AcDb2dVertex
 10
209.4789329387
 20
131.3446971987
 30
0.0
  0
VERTEX
  5
265
330
254
100
AcDbEntity
  8
0
  6
Continuous
 62
     7
370
    25
100
AcDbVertex
100
AcDb2dVertex
 10
210.3233967887
 20
131.3334553185
 30
0.0
  0
VERTEX
  5
266
330
254
100
AcDbEntity
  8
0
  6
Continuous
 62
     7
370
    25
100
AcDbVertex
100
AcDb2dVertex
 10
211.1739057081
 20
131.344527058
 30
0.0
  0
VERTEX
  5
267
330
254
100
AcDbEntity
  8
0
  6
Continuous
 62
     7
370
    25
100
AcDbVertex
100
AcDb2dVertex
 10
212.0290801683
 20
131.3778944587
 30
0.0
  0
VERTEX
  5
268
330
254
100
AcDbEntity
  8
0
  6
Continuous
 62
     7
370
    25
100
AcDbVertex
100
AcDb2dVertex
 10
212.8875330733
 20
131.4335033985
 30
0.0
  0
VERTEX
  5
269
330
254
100
AcDbEntity
  8
0
  6
Continuous
 62
     7
370
    25
100
AcDbVertex
100
AcDb2dVertex
 10
213.7478720092
 20
131.5112636796
 30
0.0
  0
VERTEX
  5
26A
330
254
100
AcDbEntity
  8
0
  6
Continuous
 62
     7
370
    25
100
AcDbVertex
100
AcDb2dVertex
 10
214.6087015032
 20
131.6110491745
 30
0.0
  0
VERTEX
  5
26B
330
254
100
AcDbEntity
  8
0
  6
Continuous
 62
     7
370
    25
100
AcDbVertex
100
AcDb2dVertex
 10
215.4686252866
 20
131.7326980307
 30
0.0
  0
VERTEX
  5
26C
330
254
100
AcDbEntity
  8
0
  6
Continuous
 62
     7
370
    25
100
AcDbVertex
100
AcDb2dVertex
 10
216.3262485601
 20
131.8760129334
 30
0.0
  0
VERTEX
  5
26D
330
254
100
AcDbEntity
  8
0
  6
Continuous
 62
     7
370
    25
100
AcDbVertex
100
AcDb2dVertex
 10
217.1801802554
 20
132.0407614253
 30
0.0
  0
VERTEX
  5
26E
330
254
100
AcDbEntity
  8
0
  6
Continuous
 62
     7
370
    25
100
AcDbVertex
100
AcDb2dVertex
 10
218.0290352922
 20
132.2266762836
 30
0.0
  0
VERTEX
  5
26F
330
254
100
AcDbEntity
  8
0
  6
Continuous
 62
     7
370
    25
100
AcDbVertex
100
AcDb2dVertex
 10
218.8714368246
 20
132.433455954
 30
0.0
  0
VERTEX
  5
270
330
254
100
AcDbEntity
  8
0
  6
Continuous
 62
     7
370
    25
100
AcDbVertex
100
AcDb2dVertex
 10
219.7060184743
 20
132.6607650388
 30
0.0
  0
VERTEX
  5
271
330
254
100
AcDbEntity
  8
0
  6
Continuous
 62
     7
370
    25
100
AcDbVertex
100
AcDb2dVertex
 10
220.5314265466
 20
132.9082348421
 30
0.0
  0
VERTEX
  5
272
330
254
100
AcDbEntity
  8
0
  6
Continuous
 62
     7
370
    25
100
AcDbVertex
100
AcDb2dVertex
 10
221.3463222268
 20
133.1754639668
 30
0.0
  0
VERTEX
  5
273
330
254
100
AcDbEntity
  8
0
  6
Continuous
 62
     7
370
    25
100
AcDbVertex
100
AcDb2dVertex
 10
222.1493837509
 20
133.4620189664
 30
0.0
  0
VERTEX
  5
274
330
254
100
AcDbEntity
  8
0
  6
Continuous
 62
     7
370
    25
100
AcDbVertex
100
AcDb2dVertex
 10
222.9393085504
 20
133.7674350475
 30
0.0
  0
VERTEX
  5
275
330
254
100
AcDbEntity
  8
0
  6
Continuous
 62
     7
370
    25
100
AcDbVertex
100
AcDb2dVertex
 10
223.7148153643
 20
134.0912168242
 30
0.0
  0
VERTEX
  5
276
330
254
100
AcDbEntity
  8
0
  6
Continuous
 62
     7
370
    25
100
AcDbVertex
100
AcDb2dVertex
 10
224.4746463176
 20
134.4328391213
 30
0.0
  0
VERTEX
  5
277
330
254
100
AcDbEntity
  8
0
  6
Continuous
 62
     7
370
    25
100
AcDbVertex
100
AcDb2dVertex
 10
225.2175689619
 20
134.7917478262
 30
0.0
  0
VERTEX
  5
278
330
254
100
AcDbEntity
  8
0
  6
Continuous
 62
     7
370
    25
100
AcDbVertex
100
AcDb2dVertex
 10
225.9423782739
 20
135.1673607875
 30
0.0
  0
VERTEX
  5
279
330
254
100
AcDbEntity
  8
0
  6
Continuous
 62
     7
370
    25
100
AcDbVertex
100
AcDb2dVertex
 10
226.6478986101
 20
135.5590687598
 30
0.0
  0
VERTEX
  5
27A
330
254
100
AcDbEntity
  8
0
  6
Continuous
 62
     7
370
    25
100
AcDbVertex
100
AcDb2dVertex
 10
227.3329856141
 20
135.9662363912
 30
0.0
  0
VERTEX
  5
27B
330
254
100
AcDbEntity
  8
0
  6
Continuous
 62
     7
370
    25
100
AcDbVertex
100
AcDb2dVertex
 10
227.9965280723
 20
136.3882032543
 30
0.0
  0
VERTEX
  5
27C
330
254
100
AcDbEntity
  8
0
  6
Continuous
 62
     7
370
    25
100
AcDbVertex
100
AcDb2dVertex
 10
228.6374497163
 20
136.8242849175
 30
0.0
  0
VERTEX
  5
27D
330
254
100
AcDbEntity
  8
0
  6
Continuous
 62
     7
370
    25
100
AcDbVertex
100
AcDb2dVertex
 10
229.2547109688
 20
137.2737740546
 30
0.0
  0
VERTEX
  5
27E
330
254
100
AcDbEntity
  8
0
  6
Continuous
 62
     7
370
    25
100
AcDbVertex
100
AcDb2dVertex
 10
229.8473106299
 20
137.7359415925
 30
0.0
  0
VERTEX
  5
27F
330
254
100
AcDbEntity
  8
0
  6
Continuous
 62
     7
370
    25
100
AcDbVertex
100
AcDb2dVertex
 10
230.4142875008
 20
138.2100378939
 30
0.0
  0
VERTEX
  5
280
330
254
100
AcDbEntity
  8
0
  6
Continuous
 62
     7
370
    25
100
AcDbVertex
100
AcDb2dVertex
 10
230.9547219429
 20
138.6952939729
 30
0.0
  0
VERTEX
  5
281
330
254
100
AcDbEntity
  8
0
  6
Continuous
 62
     7
370
    25
100
AcDbVertex
100
AcDb2dVertex
 10
231.4677373695
 20
139.1909227422
 30
0.0
  0
VERTEX
  5
282
330
254
100
AcDbEntity
  8
0
  6
Continuous
 62
     7
370
    25
100
AcDbVertex
100
AcDb2dVertex
 10
231.9525016678
 20
139.6961202902
 30
0.0
  0
VERTEX
  5
283
330
254
100
AcDbEntity
  8
0
  6
Continuous
 62
     7
370
    25
100
AcDbVertex
100
AcDb2dVertex
 10
232.4082285483
 20
140.2100671847
 30
0.0
  0
VERTEX
  5
284
330
254
100
AcDbEntity
  8
0
  6
Continuous
 62
     7
370
    25
100
AcDbVertex
100
AcDb2dVertex
 10
232.8341788203
 20
140.7319298019
 30
0.0
  0
VERTEX
  5
285
330
254
100
AcDbEntity
  8
0
  6
Continuous
 62
     7
370
    25
100
AcDbVertex
100
AcDb2dVertex
 10
233.2296615909
 20
141.2608616787
 30
0.0
  0
VERTEX
  5
286
330
254
100
AcDbEntity
  8
0
  6
Continuous
 62
     7
370
    25
100
AcDbVertex
100
AcDb2dVertex
 10
233.5940353857
 20
141.7960048856
 30
0.0
  0
VERTEX
  5
287
330
254
100
AcDbEntity
  8
0
  6
Continuous
 62
     7
370
    25
100
AcDbVertex
100
AcDb2dVertex
 10
233.9267091889
 20
142.3364914186
 30
0.0
  0
VERTEX
  5
288
330
254
100
AcDbEntity
  8
0
  6
Continuous
 62
     7
370
    25
100
AcDbVertex
100
AcDb2dVertex
 10
234.2271434025
 20
142.8814446063
 30
0.0
  0
VERTEX
  5
289
330
254
100
AcDbEntity
  8
0
  6
Continuous
 62
     7
370
    25
100
AcDbVertex
100
AcDb2dVertex
 10
234.4948507211
 20
143.4299805328
 30
0.0
  0
VERTEX
  5
28A
330
254
100
AcDbEntity
  8
0
  6
Continuous
 62
     7
370
    25
100
AcDbVertex
100
AcDb2dVertex
 10
234.7293969225
 20
143.9812094708
 30
0.0
  0
VERTEX
  5
28B
330
254
100
AcDbEntity
  8
0
  6
Continuous
 62
     7
370
    25
100
AcDbVertex
100
AcDb2dVertex
 10
234.9304015718
 20
144.5342373249
 30
0.0
  0
VERTEX
  5
28C
330
254
100
AcDbEntity
  8
0
  6
Continuous
 62
     7
370
    25
100
AcDbVertex
100
AcDb2dVertex
 10
235.0975386387
 20
145.0881670819
 30
0.0
  0
VERTEX
  5
28D
330
254
100
AcDbEntity
  8
0
  6
Continuous
 62
     7
370
    25
100
AcDbVertex
100
AcDb2dVertex
 10
235.2305370263
 20
145.6421002657
 30
0.0
  0
VERTEX
  5
28E
330
254
100
AcDbEntity
  8
0
  6
Continuous
 62
     7
370
    25
100
AcDbVertex
100
AcDb2dVertex
 10
235.3291810109
 20
146.1951383948
 30
0.0
  0
VERTEX
  5
28F
330
254
100
AcDbEntity
  8
0
  6
Continuous
 62
     7
370
    25
100
AcDbVertex
100
AcDb2dVertex
 10
235.3933105913
 20
146.7463844391
 30
0.0
  0
VERTEX
  5
290
330
254
100
AcDbEntity
  8
0
  6
Continuous
 62
     7
370
    25
100
AcDbVertex
100
AcDb2dVertex
 10
235.4228217493
 20
147.2949442756
 30
0.0
  0
VERTEX
  5
291
330
254
100
AcDbEntity
  8
0
  6
Continuous
 62
     7
370
    25
100
AcDbVertex
100
AcDb2dVertex
 10
235.4176666176
 20
147.8399281383
 30
0.0
  0
VERTEX
  5
292
330
254
100
AcDbEntity
  8
0
  6
Continuous
 62
     7
370
    25
100
AcDbVertex
100
AcDb2dVertex
 10
235.3778535579
 20
148.3804520613
 30
0.0
  0
VERTEX
  5
293
330
254
100
AcDbEntity
  8
0
  6
Continuous
 62
     7
370
    25
100
AcDbVertex
100
AcDb2dVertex
 10
235.3034471471
 20
148.9156393129
 30
0.0
  0
VERTEX
  5
294
330
254
100
AcDbEntity
  8
0
  6
Continuous
 62
     7
370
    25
100
AcDbVertex
100
AcDb2dVertex
 10
235.2874428692
 20
149.0056069001
 30
0.0
  0
SEQEND
  5
295
330
254
100
AcDbEntity
  8
0
  6
Continuous
 62
     7
370
    25
  0
POLYLINE
  5
296
330
A
100
AcDbEntity
  8
0
  6
Continuous
 62
     7
370
    25
100
AcDb2dPolyline
 66
     1
 10
0.0
 20
0.0
 30
0.0
 75
     5
  0
VERTEX
  5
297
330
296
100
AcDbEntity
  8
0
  6
Continuous
 62
     7
370
    25
100
AcDbVertex
100
AcDb2dVertex
 10
192.8170184358
 20
141.1541909967
 30
0.0
  0
VERTEX
  5
298
330
296
100
AcDbEntity
  8
0
  6
Continuous
 62
     7
370
    25
100
AcDbVertex
100
AcDb2dVertex
 10
192.9060550632
 20
140.7359377707
 30
0.0
  0
VERTEX
  5
299
330
296
100
AcDbEntity
  8
0
  6
Continuous
 62
     7
370
    25
100
AcDbVertex
100
AcDb2dVertex
 10
193.049230199
 20
140.2140180249
 30
0.0
  0
VERTEX
  5
29A
330
296
100
AcDbEntity
  8
0
  6
Continuous
 62
     7
370
    25
100
AcDbVertex
100
AcDb2dVertex
 10
193.2264691656
 20
139.7000075936
 30
0.0
  0
VERTEX
  5
29B
330
296
100
AcDbEntity
  8
0
  6
Continuous
 62
     7
370
    25
100
AcDbVertex
100
AcDb2dVertex
 10
193.4374844807
 20
139.1947402035
 30
0.0
  0
VERTEX
  5
29C
330
296
100
AcDbEntity
  8
0
  6
Continuous
 62
     7
370
    25
100
AcDbVertex
100
AcDb2dVertex
 10
193.6819338767
 20
138.6990354002
 30
0.0
  0
VERTEX
  5
29D
330
296
100
AcDbEntity
  8
0
  6
Continuous
 62
     7
370
    25
100
AcDbVertex
100
AcDb2dVertex
 10
193.9594208558
 20
138.2136972186
 30
0.0
  0
VERTEX
  5
29E
330
296
100
AcDbEntity
  8
0
  6
Continuous
 62
     7
370
    25
100
AcDbVertex
100
AcDb2dVertex
 10
194.2694953332
 20
137.7395128791
 30
0.0
  0
VERTEX
  5
29F
330
296
100
AcDbEntity
  8
0
  6
Continuous
 62
     7
370
    25
100
AcDbVertex
100
AcDb2dVertex
 10
194.6116543668
 20
137.2772515105
 30
0.0
  0
VERTEX
  5
2A0
330
296
100
AcDbEntity
  8
0
  6
Continuous
 62
     7
370
    25
100
AcDbVertex
100
AcDb2dVertex
 10
194.9853429734
 20
136.8276629023
 30
0.0
  0
VERTEX
  5
2A1
330
296
100
AcDbEntity
  8
0
  6
Continuous
 62
     7
370
    25
100
AcDbVertex
100
AcDb2dVertex
 10
195.3899550289
 20
136.3914762889
 30
0.0
  0
VERTEX
  5
2A2
330
296
100
AcDbEntity
  8
0
  6
Continuous
 62
     7
370
    25
100
AcDbVertex
100
AcDb2dVertex
 10
195.8248342508
 20
135.9693991666
 30
0.0
  0
VERTEX
  5
2A3
330
296
100
AcDbEntity
  8
0
  6
Continuous
 62
     7
370
    25
100
AcDbVertex
100
AcDb2dVertex
 10
196.2892752637
 20
135.562116146
 30
0.0
  0
VERTEX
  5
2A4
330
296
100
AcDbEntity
  8
0
  6
Continuous
 62
     7
370
    25
100
AcDbVertex
100
AcDb2dVertex
 10
196.7825247424
 20
135.1702878417
 30
0.0
  0
VERTEX
  5
2A5
330
296
100
AcDbEntity
  8
0
  6
Continuous
 62
     7
370
    25
100
AcDbVertex
100
AcDb2dVertex
 10
197.3037826344
 20
134.7945498007
 30
0.0
  0
VERTEX
  5
2A6
330
296
100
AcDbEntity
  8
0
  6
Continuous
 62
     7
370
    25
100
AcDbVertex
100
AcDb2dVertex
 10
197.8522034576
 20
134.4355114713
 30
0.0
  0
VERTEX
  5
2A7
330
296
100
AcDbEntity
  8
0
  6
Continuous
 62
     7
370
    25
100
AcDbVertex
100
AcDb2dVertex
 10
198.4268976714
 20
134.0937552151
 30
0.0
  0
SEQEND
  5
2A8
330
296
100
AcDbEntity
  8
0
  6
Continuous
 62
     7
370
    25
  0
POLYLINE
  5
2A9
330
A
100
AcDbEntity
  8
0
  6
Continuous
 62
     7
370
    25
100
AcDb2dPolyline
 66
     1
 10
0.0
 20
0.0
 30
0.0
 75
     5
  0
VERTEX
  5
2AA
330
2A9
100
AcDbEntity
  8
0
  6
Continuous
 62
     7
370
    25
100
AcDbVertex
100
AcDb2dVertex
 10
200.991721799
 20
131.4758454647
 30
0.0
  0
VERTEX
  5
2AB
330
2A9
100
AcDbEntity
  8
0
  6
Continuous
 62
     7
370
    25
100
AcDbVertex
100
AcDb2dVertex
 10
201.5580923359
 20
131.171116701
 30
0.0
  0
VERTEX
  5
2AC
330
2A9
100
AcDbEntity
  8
0
  6
Continuous
 62
     7
370
    25
100
AcDbVertex
100
AcDb2dVertex
 10
202.1489354387
 20
130.8849154046
 30
0.0
  0
VERTEX
  5
2AD
330
2A9
100
AcDbEntity
  8
0
  6
Continuous
 62
     7
370
    25
100
AcDbVertex
100
AcDb2dVertex
 10
202.763157002
 20
130.6177715545
 30
0.0
  0
VERTEX
  5
2AE
330
2A9
100
AcDbEntity
  8
0
  6
Continuous
 62
     7
370
    25
100
AcDbVertex
100
AcDb2dVertex
 10
203.3996196288
 20
130.3701798396
 30
0.0
  0
VERTEX
  5
2AF
330
2A9
100
AcDbEntity
  8
0
  6
Continuous
 62
     7
370
    25
100
AcDbVertex
100
AcDb2dVertex
 10
204.0571447369
 20
130.1425987428
 30
0.0
  0
VERTEX
  5
2B0
330
2A9
100
AcDbEntity
  8
0
  6
Continuous
 62
     7
370
    25
100
AcDbVertex
100
AcDb2dVertex
 10
204.734514741
 20
129.9354496917
 30
0.0
  0
VERTEX
  5
2B1
330
2A9
100
AcDbEntity
  8
0
  6
Continuous
 62
     7
370
    25
100
AcDbVertex
100
AcDb2dVertex
 10
205.430475308
 20
129.7491162789
 30
0.0
  0
VERTEX
  5
2B2
330
2A9
100
AcDbEntity
  8
0
  6
Continuous
 62
     7
370
    25
100
AcDbVertex
100
AcDb2dVertex
 10
206.143737679
 20
129.5839435509
 30
0.0
  0
VERTEX
  5
2B3
330
2A9
100
AcDbEntity
  8
0
  6
Continuous
 62
     7
370
    25
100
AcDbVertex
100
AcDb2dVertex
 10
206.8729810563
 20
129.4402373695
 30
0.0
  0
VERTEX
  5
2B4
330
2A9
100
AcDbEntity
  8
0
  6
Continuous
 62
     7
370
    25
100
AcDbVertex
100
AcDb2dVertex
 10
207.6168550491
 20
129.3182638455
 30
0.0
  0
VERTEX
  5
2B5
330
2A9
100
AcDbEntity
  8
0
  6
Continuous
 62
     7
370
    25
100
AcDbVertex
100
AcDb2dVertex
 10
208.3739821739
 20
129.2182488459
 30
0.0
  0
VERTEX
  5
2B6
330
2A9
100
AcDbEntity
  8
0
  6
Continuous
 62
     7
370
    25
100
AcDbVertex
100
AcDb2dVertex
 10
209.1429604057
 20
129.1403775753
 30
0.0
  0
VERTEX
  5
2B7
330
2A9
100
AcDbEntity
  8
0
  6
Continuous
 62
     7
370
    25
100
AcDbVertex
100
AcDb2dVertex
 10
209.9223657738
 20
129.0847942334
 30
0.0
  0
VERTEX
  5
2B8
330
2A9
100
AcDbEntity
  8
0
  6
Continuous
 62
     7
370
    25
100
AcDbVertex
100
AcDb2dVertex
 10
210.7107549988
 20
129.0516017479
 30
0.0
  0
VERTEX
  5
2B9
330
2A9
100
AcDbEntity
  8
0
  6
Continuous
 62
     7
370
    25
100
AcDbVertex
100
AcDb2dVertex
 10
211.5066681654
 20
129.0408615834
 30
0.0
  0
VERTEX
  5
2BA
330
2A9
100
AcDbEntity
  8
0
  6
Continuous
 62
     7
370
    25
100
AcDbVertex
100
AcDb2dVertex
 10
212.3086314257
 20
129.0525936284
 30
0.0
  0
VERTEX
  5
2BB
330
2A9
100
AcDbEntity
  8
0
  6
Continuous
 62
     7
370
    25
100
AcDbVertex
100
AcDb2dVertex
 10
213.1151597282
 20
129.0867761578
 30
0.0
  0
VERTEX
  5
2BC
330
2A9
100
AcDbEntity
  8
0
  6
Continuous
 62
     7
370
    25
100
AcDbVertex
100
AcDb2dVertex
 10
213.9247595683
 20
129.1433458734
 30
0.0
  0
VERTEX
  5
2BD
330
2A9
100
AcDbEntity
  8
0
  6
Continuous
 62
     7
370
    25
100
AcDbVertex
100
AcDb2dVertex
 10
214.7359317534
 20
129.2221980211
 30
0.0
  0
VERTEX
  5
2BE
330
2A9
100
AcDbEntity
  8
0
  6
Continuous
 62
     7
370
    25
100
AcDbVertex
100
AcDb2dVertex
 10
215.5471741794
 20
129.323186585
 30
0.0
  0
VERTEX
  5
2BF
330
2A9
100
AcDbEntity
  8
0
  6
Continuous
 62
     7
370
    25
100
AcDbVertex
100
AcDb2dVertex
 10
216.356984612
 20
129.4461245573
 30
0.0
  0
VERTEX
  5
2C0
330
2A9
100
AcDbEntity
  8
0
  6
Continuous
 62
     7
370
    25
100
AcDbVertex
100
AcDb2dVertex
 10
217.1638634687
 20
129.5907842854
 30
0.0
  0
VERTEX
  5
2C1
330
2A9
100
AcDbEntity
  8
0
  6
Continuous
 62
     7
370
    25
100
AcDbVertex
100
AcDb2dVertex
 10
217.9663165957
 20
129.7568978926
 30
0.0
  0
VERTEX
  5
2C2
330
2A9
100
AcDbEntity
  8
0
  6
Continuous
 62
     7
370
    25
100
AcDbVertex
100
AcDb2dVertex
 10
218.7628580345
 20
129.9441577749
 30
0.0
  0
VERTEX
  5
2C3
330
2A9
100
AcDbEntity
  8
0
  6
Continuous
 62
     7
370
    25
100
AcDbVertex
100
AcDb2dVertex
 10
219.5520127737
 20
130.15221717
 30
0.0
  0
VERTEX
  5
2C4
330
2A9
100
AcDbEntity
  8
0
  6
Continuous
 62
     7
370
    25
100
AcDbVertex
100
AcDb2dVertex
 10
220.3323194804
 20
130.3806907999
 30
0.0
  0
VERTEX
  5
2C5
330
2A9
100
AcDbEntity
  8
0
  6
Continuous
 62
     7
370
    25
100
AcDbVertex
100
AcDb2dVertex
 10
221.1023332062
 20
130.6291555839
 30
0.0
  0
VERTEX
  5
2C6
330
2A9
100
AcDbEntity
  8
0
  6
Continuous
 62
     7
370
    25
100
AcDbVertex
100
AcDb2dVertex
 10
221.8606280629
 20
130.8971514225
 30
0.0
  0
VERTEX
  5
2C7
330
2A9
100
AcDbEntity
  8
0
  6
Continuous
 62
     7
370
    25
100
AcDbVertex
100
AcDb2dVertex
 10
222.6057998631
 20
131.1841820491
 30
0.0
  0
VERTEX
  5
2C8
330
2A9
100
AcDbEntity
  8
0
  6
Continuous
 62
     7
370
    25
100
AcDbVertex
100
AcDb2dVertex
 10
223.33646872
 20
131.489715949
 30
0.0
  0
VERTEX
  5
2C9
330
2A9
100
AcDbEntity
  8
0
  6
Continuous
 62
     7
370
    25
100
AcDbVertex
100
AcDb2dVertex
 10
224.0512816033
 20
131.8131873438
 30
0.0
  0
VERTEX
  5
2CA
330
2A9
100
AcDbEntity
  8
0
  6
Continuous
 62
     7
370
    25
100
AcDbVertex
100
AcDb2dVertex
 10
224.7489148439
 20
132.153997239
 30
0.0
  0
VERTEX
  5
2CB
330
2A9
100
AcDbEntity
  8
0
  6
Continuous
 62
     7
370
    25
100
AcDbVertex
100
AcDb2dVertex
 10
225.4280765857
 20
132.511514533
 30
0.0
  0
VERTEX
  5
2CC
330
2A9
100
AcDbEntity
  8
0
  6
Continuous
 62
     7
370
    25
100
AcDbVertex
100
AcDb2dVertex
 10
226.0875091776
 20
132.8850771861
 30
0.0
  0
VERTEX
  5
2CD
330
2A9
100
AcDbEntity
  8
0
  6
Continuous
 62
     7
370
    25
100
AcDbVertex
100
AcDb2dVertex
 10
226.7259915021
 20
133.2739934464
 30
0.0
  0
VERTEX
  5
2CE
330
2A9
100
AcDbEntity
  8
0
  6
Continuous
 62
     7
370
    25
100
AcDbVertex
100
AcDb2dVertex
 10
227.342341237
 20
133.6775431303
 30
0.0
  0
VERTEX
  5
2CF
330
2A9
100
AcDbEntity
  8
0
  6
Continuous
 62
     7
370
    25
100
AcDbVertex
100
AcDb2dVertex
 10
227.9354170444
 20
134.0949789569
 30
0.0
  0
VERTEX
  5
2D0
330
2A9
100
AcDbEntity
  8
0
  6
Continuous
 62
     7
370
    25
100
AcDbVertex
100
AcDb2dVertex
 10
228.5041206845
 20
134.525527931
 30
0.0
  0
VERTEX
  5
2D1
330
2A9
100
AcDbEntity
  8
0
  6
Continuous
 62
     7
370
    25
100
AcDbVertex
100
AcDb2dVertex
 10
229.0473990491
 20
134.968392775
 30
0.0
  0
VERTEX
  5
2D2
330
2A9
100
AcDbEntity
  8
0
  6
Continuous
 62
     7
370
    25
100
AcDbVertex
100
AcDb2dVertex
 10
229.5642461117
 20
135.4227534053
 30
0.0
  0
VERTEX
  5
2D3
330
2A9
100
AcDbEntity
  8
0
  6
Continuous
 62
     7
370
    25
100
AcDbVertex
100
AcDb2dVertex
 10
230.0537047904
 20
135.8877684505
 30
0.0
  0
VERTEX
  5
2D4
330
2A9
100
AcDbEntity
  8
0
  6
Continuous
 62
     7
370
    25
100
AcDbVertex
100
AcDb2dVertex
 10
230.5148687206
 20
136.3625768098
 30
0.0
  0
VERTEX
  5
2D5
330
2A9
100
AcDbEntity
  8
0
  6
Continuous
 62
     7
370
    25
100
AcDbVertex
100
AcDb2dVertex
 10
230.9468839328
 20
136.8462992475
 30
0.0
  0
VERTEX
  5
2D6
330
2A9
100
AcDbEntity
  8
0
  6
Continuous
 62
     7
370
    25
100
AcDbVertex
100
AcDb2dVertex
 10
231.3489504342
 20
137.3380400208
 30
0.0
  0
VERTEX
  5
2D7
330
2A9
100
AcDbEntity
  8
0
  6
Continuous
 62
     7
370
    25
100
AcDbVertex
100
AcDb2dVertex
 10
231.7203236903
 20
137.8368885392
 30
0.0
  0
VERTEX
  5
2D8
330
2A9
100
AcDbEntity
  8
0
  6
Continuous
 62
     7
370
    25
100
AcDbVertex
100
AcDb2dVertex
 10
232.0603160033
 20
138.34192105
 30
0.0
  0
VERTEX
  5
2D9
330
2A9
100
AcDbEntity
  8
0
  6
Continuous
 62
     7
370
    25
100
AcDbVertex
100
AcDb2dVertex
 10
232.3682977857
 20
138.8522023493
 30
0.0
  0
VERTEX
  5
2DA
330
2A9
100
AcDbEntity
  8
0
  6
Continuous
 62
     7
370
    25
100
AcDbVertex
100
AcDb2dVertex
 10
232.643698726
 20
139.3667875135
 30
0.0
  0
VERTEX
  5
2DB
330
2A9
100
AcDbEntity
  8
0
  6
Continuous
 62
     7
370
    25
100
AcDbVertex
100
AcDb2dVertex
 10
232.8205023119
 20
139.7371636554
 30
0.0
  0
SEQEND
  5
2DC
330
2A9
100
AcDbEntity
  8
0
  6
Continuous
 62
     7
370
    25
  0
ARC
  5
2DD
330
A
100
AcDbEntity
  8
0
  6
Continuous
 62
     7
370
    25
100
AcDbCircle
 10
206.8481256877
 20
142.0084846548
 30
0.0
 40
12.05130510845983
100
AcDbArc
 50
225.7214383163
 51
240.9248748132
  0
POLYLINE
  5
2DE
330
A
100
AcDbEntity
  8
0
  6
Continuous
 62
     8
370
    25
100
AcDb2dPolyline
 66
     1
 10
0.0
 20
0.0
 30
0.0
 75
     5
  0
VERTEX
  5
2DF
330
2DE
100
AcDbEntity
  8
0
  6
Continuous
 62
     8
370
    25
100
AcDbVertex
100
AcDb2dVertex
 10
199.8138931767
 20
199.1057782383
 30
0.0
  0
VERTEX
  5
2E0
330
2DE
100
AcDbEntity
  8
0
  6
Continuous
 62
     8
370
    25
100
AcDbVertex
100
AcDb2dVertex
 10
200.1167416993
 20
198.9504869592
 30
0.0
  0
VERTEX
  5
2E1
330
2DE
100
AcDbEntity
  8
0
  6
Continuous
 62
     8
370
    25
100
AcDbVertex
100
AcDb2dVertex
 10
200.4432147875
 20
198.8143407007
 30
0.0
  0
VERTEX
  5
2E2
330
2DE
100
AcDbEntity
  8
0
  6
Continuous
 62
     8
370
    25
100
AcDbVertex
100
AcDb2dVertex
 10
200.791082299
 20
198.69826948
 30
0.0
  0
VERTEX
  5
2E3
330
2DE
100
AcDbEntity
  8
0
  6
Continuous
 62
     8
370
    25
100
AcDbVertex
100
AcDb2dVertex
 10
201.157967946
 20
198.603066181
 30
0.0
  0
VERTEX
  5
2E4
330
2DE
100
AcDbEntity
  8
0
  6
Continuous
 62
     8
370
    25
100
AcDbVertex
100
AcDb2dVertex
 10
201.5413655275
 20
198.529381139
 30
0.0
  0
VERTEX
  5
2E5
330
2DE
100
AcDbEntity
  8
0
  6
Continuous
 62
     8
370
    25
100
AcDbVertex
100
AcDb2dVertex
 10
201.9386560493
 20
198.4777176974
 30
0.0
  0
VERTEX
  5
2E6
330
2DE
100
AcDbEntity
  8
0
  6
Continuous
 62
     8
370
    25
100
AcDbVertex
100
AcDb2dVertex
 10
202.3471256141
 20
198.4484287699
 30
0.0
  0
VERTEX
  5
2E7
330
2DE
100
AcDbEntity
  8
0
  6
Continuous
 62
     8
370
    25
100
AcDbVertex
100
AcDb2dVertex
 10
202.7639839609
 20
198.4417144296
 30
0.0
  0
VERTEX
  5
2E8
330
2DE
100
AcDbEntity
  8
0
  6
Continuous
 62
     8
370
    25
100
AcDbVertex
100
AcDb2dVertex
 10
203.1863835242
 20
198.4576205423
 30
0.0
  0
VERTEX
  5
2E9
330
2DE
100
AcDbEntity
  8
0
  6
Continuous
 62
     8
370
    25
100
AcDbVertex
100
AcDb2dVertex
 10
203.6114388869
 20
198.4960384531
 30
0.0
  0
VERTEX
  5
2EA
330
2DE
100
AcDbEntity
  8
0
  6
Continuous
 62
     8
370
    25
100
AcDbVertex
100
AcDb2dVertex
 10
204.0362464897
 20
198.5567057286
 30
0.0
  0
VERTEX
  5
2EB
330
2DE
100
AcDbEntity
  8
0
  6
Continuous
 62
     8
370
    25
100
AcDbVertex
100
AcDb2dVertex
 10
204.4579044661
 20
198.63920795
 30
0.0
  0
VERTEX
  5
2EC
330
2DE
100
AcDbEntity
  8
0
  6
Continuous
 62
     8
370
    25
100
AcDbVertex
100
AcDb2dVertex
 10
204.8735324644
 20
198.7429815433
 30
0.0
  0
VERTEX
  5
2ED
330
2DE
100
AcDbEntity
  8
0
  6
Continuous
 62
     8
370
    25
100
AcDbVertex
100
AcDb2dVertex
 10
205.280291324
 20
198.8673176297
 30
0.0
  0
VERTEX
  5
2EE
330
2DE
100
AcDbEntity
  8
0
  6
Continuous
 62
     8
370
    25
100
AcDbVertex
100
AcDb2dVertex
 10
205.6754024695
 20
199.0113668677
 30
0.0
  0
VERTEX
  5
2EF
330
2DE
100
AcDbEntity
  8
0
  6
Continuous
 62
     8
370
    25
100
AcDbVertex
100
AcDb2dVertex
 10
206.056166891
 20
199.1741452548
 30
0.0
  0
VERTEX
  5
2F0
330
2DE
100
AcDbEntity
  8
0
  6
Continuous
 62
     8
370
    25
100
AcDbVertex
100
AcDb2dVertex
 10
206.4199835815
 20
199.3545408497
 30
0.0
  0
VERTEX
  5
2F1
330
2DE
100
AcDbEntity
  8
0
  6
Continuous
 62
     8
370
    25
100
AcDbVertex
100
AcDb2dVertex
 10
206.7643673042
 20
199.5513213675
 30
0.0
  0
VERTEX
  5
2F2
330
2DE
100
AcDbEntity
  8
0
  6
Continuous
 62
     8
370
    25
100
AcDbVertex
100
AcDb2dVertex
 10
207.0869655689
 20
199.7631425978
 30
0.0
  0
VERTEX
  5
2F3
330
2DE
100
AcDbEntity
  8
0
  6
Continuous
 62
     8
370
    25
100
AcDbVertex
100
AcDb2dVertex
 10
207.3855747024
 20
199.9885575867
 30
0.0
  0
VERTEX
  5
2F4
330
2DE
100
AcDbEntity
  8
0
  6
Continuous
 62
     8
370
    25
100
AcDbVertex
100
AcDb2dVertex
 10
207.6581549015
 20
200.2260265214
 30
0.0
  0
VERTEX
  5
2F5
330
2DE
100
AcDbEntity
  8
0
  6
Continuous
 62
     8
370
    25
100
AcDbVertex
100
AcDb2dVertex
 10
207.9028441671
 20
200.4739272481
 30
0.0
  0
VERTEX
  5
2F6
330
2DE
100
AcDbEntity
  8
0
  6
Continuous
 62
     8
370
    25
100
AcDbVertex
100
AcDb2dVertex
 10
208.1179710234
 20
200.7305663536
 30
0.0
  0
VERTEX
  5
2F7
330
2DE
100
AcDbEntity
  8
0
  6
Continuous
 62
     8
370
    25
100
AcDbVertex
100
AcDb2dVertex
 10
208.3020659359
 20
200.9941907326
 30
0.0
  0
VERTEX
  5
2F8
330
2DE
100
AcDbEntity
  8
0
  6
Continuous
 62
     8
370
    25
100
AcDbVertex
100
AcDb2dVertex
 10
208.4538713495
 20
201.2629995632
 30
0.0
  0
VERTEX
  5
2F9
330
2DE
100
AcDbEntity
  8
0
  6
Continuous
 62
     8
370
    25
100
AcDbVertex
100
AcDb2dVertex
 10
208.5723502795
 20
201.5351566085
 30
0.0
  0
VERTEX
  5
2FA
330
2DE
100
AcDbEntity
  8
0
  6
Continuous
 62
     8
370
    25
100
AcDbVertex
100
AcDb2dVertex
 10
208.6566933945
 20
201.8088027601
 30
0.0
  0
VERTEX
  5
2FB
330
2DE
100
AcDbEntity
  8
0
  6
Continuous
 62
     8
370
    25
100
AcDbVertex
100
AcDb2dVertex
 10
208.7063245456
 20
202.0820687371
 30
0.0
  0
VERTEX
  5
2FC
330
2DE
100
AcDbEntity
  8
0
  6
Continuous
 62
     8
370
    25
100
AcDbVertex
100
AcDb2dVertex
 10
208.7209047016
 20
202.3530878558
 30
0.0
  0
VERTEX
  5
2FD
330
2DE
100
AcDbEntity
  8
0
  6
Continuous
 62
     8
370
    25
100
AcDbVertex
100
AcDb2dVertex
 10
208.7003342654
 20
202.620008781
 30
0.0
  0
VERTEX
  5
2FE
330
2DE
100
AcDbEntity
  8
0
  6
Continuous
 62
     8
370
    25
100
AcDbVertex
100
AcDb2dVertex
 10
208.6447537539
 20
202.881008172
 30
0.0
  0
VERTEX
  5
2FF
330
2DE
100
AcDbEntity
  8
0
  6
Continuous
 62
     8
370
    25
100
AcDbVertex
100
AcDb2dVertex
 10
208.5545428383
 20
203.1343031382
 30
0.0
  0
VERTEX
  5
300
330
2DE
100
AcDbEntity
  8
0
  6
Continuous
 62
     8
370
    25
100
AcDbVertex
100
AcDb2dVertex
 10
208.4303177507
 20
203.3781634184
 30
0.0
  0
VERTEX
  5
301
330
2DE
100
AcDbEntity
  8
0
  6
Continuous
 62
     8
370
    25
100
AcDbVertex
100
AcDb2dVertex
 10
208.2729270743
 20
203.6109231994
 30
0.0
  0
VERTEX
  5
302
330
2DE
100
AcDbEntity
  8
0
  6
Continuous
 62
     8
370
    25
100
AcDbVertex
100
AcDb2dVertex
 10
208.0834459471
 20
203.8309924959
 30
0.0
  0
VERTEX
  5
303
330
2DE
100
AcDbEntity
  8
0
  6
Continuous
 62
     8
370
    25
100
AcDbVertex
100
AcDb2dVertex
 10
207.8631687173
 20
204.0368680116
 30
0.0
  0
VERTEX
  5
304
330
2DE
100
AcDbEntity
  8
0
  6
Continuous
 62
     8
370
    25
100
AcDbVertex
100
AcDb2dVertex
 10
207.6136001018
 20
204.2271434078
 30
0.0
  0
VERTEX
  5
305
330
2DE
100
AcDbEntity
  8
0
  6
Continuous
 62
     8
370
    25
100
AcDbVertex
100
AcDb2dVertex
 10
207.5084029133
 20
204.2970219771
 30
0.0
  0
SEQEND
  5
306
330
2DE
100
AcDbEntity
  8
0
  6
Continuous
 62
     8
370
    25
  0
POLYLINE
  5
307
330
A
100
AcDbEntity
  8
0
  6
Continuous
 62
     8
370
    25
100
AcDb2dPolyline
 66
     1
 10
0.0
 20
0.0
 30
0.0
 75
     5
  0
VERTEX
  5
308
330
307
100
AcDbEntity
  8
0
  6
Continuous
 62
     8
370
    25
100
AcDbVertex
100
AcDb2dVertex
 10
198.9924177131
 20
202.7226901326
 30
0.0
  0
VERTEX
  5
309
330
307
100
AcDbEntity
  8
0
  6
Continuous
 62
     8
370
    25
100
AcDbVertex
100
AcDb2dVertex
 10
198.848272148
 20
202.5121064165
 30
0.0
  0
VERTEX
  5
30A
330
307
100
AcDbEntity
  8
0
  6
Continuous
 62
     8
370
    25
100
AcDbVertex
100
AcDb2dVertex
 10
198.6964667344
 20
202.2432975859
 30
0.0
  0
VERTEX
  5
30B
330
307
100
AcDbEntity
  8
0
  6
Continuous
 62
     8
370
    25
100
AcDbVertex
100
AcDb2dVertex
 10
198.5779878044
 20
201.9711405406
 30
0.0
  0
VERTEX
  5
30C
330
307
100
AcDbEntity
  8
0
  6
Continuous
 62
     8
370
    25
100
AcDbVertex
100
AcDb2dVertex
 10
198.4936446894
 20
201.697494389
 30
0.0
  0
VERTEX
  5
30D
330
307
100
AcDbEntity
  8
0
  6
Continuous
 62
     8
370
    25
100
AcDbVertex
100
AcDb2dVertex
 10
198.4440135383
 20
201.424228412
 30
0.0
  0
VERTEX
  5
30E
330
307
100
AcDbEntity
  8
0
  6
Continuous
 62
     8
370
    25
100
AcDbVertex
100
AcDb2dVertex
 10
198.4294333822
 20
201.1532092933
 30
0.0
  0
VERTEX
  5
30F
330
307
100
AcDbEntity
  8
0
  6
Continuous
 62
     8
370
    25
100
AcDbVertex
100
AcDb2dVertex
 10
198.4500038184
 20
200.8862883681
 30
0.0
  0
VERTEX
  5
310
330
307
100
AcDbEntity
  8
0
  6
Continuous
 62
     8
370
    25
100
AcDbVertex
100
AcDb2dVertex
 10
198.5055843299
 20
200.6252889772
 30
0.0
  0
VERTEX
  5
311
330
307
100
AcDbEntity
  8
0
  6
Continuous
 62
     8
370
    25
100
AcDbVertex
100
AcDb2dVertex
 10
198.5957952455
 20
200.3719940109
 30
0.0
  0
VERTEX
  5
312
330
307
100
AcDbEntity
  8
0
  6
Continuous
 62
     8
370
    25
100
AcDbVertex
100
AcDb2dVertex
 10
198.7200203332
 20
200.1281337307
 30
0.0
  0
VERTEX
  5
313
330
307
100
AcDbEntity
  8
0
  6
Continuous
 62
     8
370
    25
100
AcDbVertex
100
AcDb2dVertex
 10
198.8774110095
 20
199.8953739497
 30
0.0
  0
VERTEX
  5
314
330
307
100
AcDbEntity
  8
0
  6
Continuous
 62
     8
370
    25
100
AcDbVertex
100
AcDb2dVertex
 10
199.0668921367
 20
199.6753046532
 30
0.0
  0
VERTEX
  5
315
330
307
100
AcDbEntity
  8
0
  6
Continuous
 62
     8
370
    25
100
AcDbVertex
100
AcDb2dVertex
 10
199.2871693665
 20
199.4694291375
 30
0.0
  0
VERTEX
  5
316
330
307
100
AcDbEntity
  8
0
  6
Continuous
 62
     8
370
    25
100
AcDbVertex
100
AcDb2dVertex
 10
199.5367379821
 20
199.2791537413
 30
0.0
  0
VERTEX
  5
317
330
307
100
AcDbEntity
  8
0
  6
Continuous
 62
     8
370
    25
100
AcDbVertex
100
AcDb2dVertex
 10
199.8138931767
 20
199.1057782383
 30
0.0
  0
SEQEND
  5
318
330
307
100
AcDbEntity
  8
0
  6
Continuous
 62
     8
370
    25
  0
POLYLINE
  5
319
330
A
100
AcDbEntity
  8
0
  6
Continuous
 62
     8
370
    25
100
AcDb2dPolyline
 66
     1
 10
0.0
 20
0.0
 30
0.0
 75
     5
  0
VERTEX
  5
31A
330
319
100
AcDbEntity
  8
0
  6
Continuous
 62
     8
370
    25
100
AcDbVertex
100
AcDb2dVertex
 10
188.5056114702
 20
154.2801022547
 30
0.0
  0
VERTEX
  5
31B
330
319
100
AcDbEntity
  8
0
  6
Continuous
 62
     8
370
    25
100
AcDbVertex
100
AcDb2dVertex
 10
189.2020712482
 20
153.9015949585
 30
0.0
  0
VERTEX
  5
31C
330
319
100
AcDbEntity
  8
0
  6
Continuous
 62
     8
370
    25
100
AcDbVertex
100
AcDb2dVertex
 10
189.9231160072
 20
153.541438505
 30
0.0
  0
VERTEX
  5
31D
330
319
100
AcDbEntity
  8
0
  6
Continuous
 62
     8
370
    25
100
AcDbVertex
100
AcDb2dVertex
 10
190.6678769446
 20
153.2000668545
 30
0.0
  0
VERTEX
  5
31E
330
319
100
AcDbEntity
  8
0
  6
Continuous
 62
     8
370
    25
100
AcDbVertex
100
AcDb2dVertex
 10
191.4354566813
 20
152.8778913332
 30
0.0
  0
VERTEX
  5
31F
330
319
100
AcDbEntity
  8
0
  6
Continuous
 62
     8
370
    25
100
AcDbVertex
100
AcDb2dVertex
 10
192.2249303437
 20
152.5753001376
 30
0.0
  0
VERTEX
  5
320
330
319
100
AcDbEntity
  8
0
  6
Continuous
 62
     8
370
    25
100
AcDbVertex
100
AcDb2dVertex
 10
193.0353466773
 20
152.2926578666
 30
0.0
  0
VERTEX
  5
321
330
319
100
AcDbEntity
  8
0
  6
Continuous
 62
     8
370
    25
100
AcDbVertex
100
AcDb2dVertex
 10
193.8657291937
 20
152.0303050819
 30
0.0
  0
VERTEX
  5
322
330
319
100
AcDbEntity
  8
0
  6
Continuous
 62
     8
370
    25
100
AcDbVertex
100
AcDb2dVertex
 10
194.7150773466
 20
151.7885578984
 30
0.0
  0
VERTEX
  5
323
330
319
100
AcDbEntity
  8
0
  6
Continuous
 62
     8
370
    25
100
AcDbVertex
100
AcDb2dVertex
 10
195.5823677376
 20
151.5677076025
 30
0.0
  0
VERTEX
  5
324
330
319
100
AcDbEntity
  8
0
  6
Continuous
 62
     8
370
    25
100
AcDbVertex
100
AcDb2dVertex
 10
196.4665553493
 20
151.3680203016
 30
0.0
  0
VERTEX
  5
325
330
319
100
AcDbEntity
  8
0
  6
Continuous
 62
     8
370
    25
100
AcDbVertex
100
AcDb2dVertex
 10
197.3665748046
 20
151.1897366034
 30
0.0
  0
VERTEX
  5
326
330
319
100
AcDbEntity
  8
0
  6
Continuous
 62
     8
370
    25
100
AcDbVertex
100
AcDb2dVertex
 10
198.2813416501
 20
151.0330713258
 30
0.0
  0
VERTEX
  5
327
330
319
100
AcDbEntity
  8
0
  6
Continuous
 62
     8
370
    25
100
AcDbVertex
100
AcDb2dVertex
 10
199.209753663
 20
150.8982132384
 30
0.0
  0
VERTEX
  5
328
330
319
100
AcDbEntity
  8
0
  6
Continuous
 62
     8
370
    25
100
AcDbVertex
100
AcDb2dVertex
 10
200.1506921791
 20
150.7853248345
 30
0.0
  0
VERTEX
  5
329
330
319
100
AcDbEntity
  8
0
  6
Continuous
 62
     8
370
    25
100
AcDbVertex
100
AcDb2dVertex
 10
201.1030234409
 20
150.694542136
 30
0.0
  0
VERTEX
  5
32A
330
319
100
AcDbEntity
  8
0
  6
Continuous
 62
     8
370
    25
100
AcDbVertex
100
AcDb2dVertex
 10
202.0655999632
 20
150.6259745289
 30
0.0
  0
VERTEX
  5
32B
330
319
100
AcDbEntity
  8
0
  6
Continuous
 62
     8
370
    25
100
AcDbVertex
100
AcDb2dVertex
 10
203.0372619165
 20
150.5797046318
 30
0.0
  0
VERTEX
  5
32C
330
319
100
AcDbEntity
  8
0
  6
Continuous
 62
     8
370
    25
100
AcDbVertex
100
AcDb2dVertex
 10
204.0168385236
 20
150.5557881964
 30
0.0
  0
VERTEX
  5
32D
330
319
100
AcDbEntity
  8
0
  6
Continuous
 62
     8
370
    25
100
AcDbVertex
100
AcDb2dVertex
 10
205.0031494712
 20
150.5542540401
 30
0.0
  0
VERTEX
  5
32E
330
319
100
AcDbEntity
  8
0
  6
Continuous
 62
     8
370
    25
100
AcDbVertex
100
AcDb2dVertex
 10
205.9950063313
 20
150.5751040114
 30
0.0
  0
VERTEX
  5
32F
330
319
100
AcDbEntity
  8
0
  6
Continuous
 62
     8
370
    25
100
AcDbVertex
100
AcDb2dVertex
 10
206.9912139936
 20
150.6183129878
 30
0.0
  0
VERTEX
  5
330
330
319
100
AcDbEntity
  8
0
  6
Continuous
 62
     8
370
    25
100
AcDbVertex
100
AcDb2dVertex
 10
207.9905721055
 20
150.6838289057
 30
0.0
  0
VERTEX
  5
331
330
319
100
AcDbEntity
  8
0
  6
Continuous
 62
     8
370
    25
100
AcDbVertex
100
AcDb2dVertex
 10
208.9918765184
 20
150.7715728237
 30
0.0
  0
VERTEX
  5
332
330
319
100
AcDbEntity
  8
0
  6
Continuous
 62
     8
370
    25
100
AcDbVertex
100
AcDb2dVertex
 10
209.9939207384
 20
150.8814390171
 30
0.0
  0
VERTEX
  5
333
330
319
100
AcDbEntity
  8
0
  6
Continuous
 62
     8
370
    25
100
AcDbVertex
100
AcDb2dVertex
 10
210.9954973802
 20
151.0132951058
 30
0.0
  0
VERTEX
  5
334
330
319
100
AcDbEntity
  8
0
  6
Continuous
 62
     8
370
    25
100
AcDbVertex
100
AcDb2dVertex
 10
211.9953996221
 20
151.1669822133
 30
0.0
  0
VERTEX
  5
335
330
319
100
AcDbEntity
  8
0
  6
Continuous
 62
     8
370
    25
100
AcDbVertex
100
AcDb2dVertex
 10
212.9924226596
 20
151.3423151588
 30
0.0
  0
VERTEX
  5
336
330
319
100
AcDbEntity
  8
0
  6
Continuous
 62
     8
370
    25
100
AcDbVertex
100
AcDb2dVertex
 10
213.9853651578
 20
151.5390826797
 30
0.0
  0
VERTEX
  5
337
330
319
100
AcDbEntity
  8
0
  6
Continuous
 62
     8
370
    25
100
AcDbVertex
100
AcDb2dVertex
 10
214.9730306981
 20
151.7570476863
 30
0.0
  0
VERTEX
  5
338
330
319
100
AcDbEntity
  8
0
  6
Continuous
 62
     8
370
    25
100
AcDbVertex
100
AcDb2dVertex
 10
215.9542292207
 20
151.995947548
 30
0.0
  0
VERTEX
  5
339
330
319
100
AcDbEntity
  8
0
  6
Continuous
 62
     8
370
    25
100
AcDbVertex
100
AcDb2dVertex
 10
216.9277784576
 20
152.2554944089
 30
0.0
  0
VERTEX
  5
33A
330
319
100
AcDbEntity
  8
0
  6
Continuous
 62
     8
370
    25
100
AcDbVertex
100
AcDb2dVertex
 10
217.8925053579
 20
152.5353755353
 30
0.0
  0
VERTEX
  5
33B
330
319
100
AcDbEntity
  8
0
  6
Continuous
 62
     8
370
    25
100
AcDbVertex
100
AcDb2dVertex
 10
218.8472475008
 20
152.8352536923
 30
0.0
  0
VERTEX
  5
33C
330
319
100
AcDbEntity
  8
0
  6
Continuous
 62
     8
370
    25
100
AcDbVertex
100
AcDb2dVertex
 10
219.7908544963
 20
153.1547675499
 30
0.0
  0
VERTEX
  5
33D
330
319
100
AcDbEntity
  8
0
  6
Continuous
 62
     8
370
    25
100
AcDbVertex
100
AcDb2dVertex
 10
220.7221893716
 20
153.493532119
 30
0.0
  0
VERTEX
  5
33E
330
319
100
AcDbEntity
  8
0
  6
Continuous
 62
     8
370
    25
100
AcDbVertex
100
AcDb2dVertex
 10
221.6401299407
 20
153.8511392146
 30
0.0
  0
VERTEX
  5
33F
330
319
100
AcDbEntity
  8
0
  6
Continuous
 62
     8
370
    25
100
AcDbVertex
100
AcDb2dVertex
 10
222.5435701566
 20
154.2271579479
 30
0.0
  0
VERTEX
  5
340
330
319
100
AcDbEntity
  8
0
  6
Continuous
 62
     8
370
    25
100
AcDbVertex
100
AcDb2dVertex
 10
223.4314214443
 20
154.6211352458
 30
0.0
  0
VERTEX
  5
341
330
319
100
AcDbEntity
  8
0
  6
Continuous
 62
     8
370
    25
100
AcDbVertex
100
AcDb2dVertex
 10
224.3026140122
 20
155.0325963962
 30
0.0
  0
VERTEX
  5
342
330
319
100
AcDbEntity
  8
0
  6
Continuous
 62
     8
370
    25
100
AcDbVertex
100
AcDb2dVertex
 10
225.1560981409
 20
155.4610456205
 30
0.0
  0
VERTEX
  5
343
330
319
100
AcDbEntity
  8
0
  6
Continuous
 62
     8
370
    25
100
AcDbVertex
100
AcDb2dVertex
 10
225.9908454487
 20
155.9059666708
 30
0.0
  0
VERTEX
  5
344
330
319
100
AcDbEntity
  8
0
  6
Continuous
 62
     8
370
    25
100
AcDbVertex
100
AcDb2dVertex
 10
226.8058501301
 20
156.3668234518
 30
0.0
  0
VERTEX
  5
345
330
319
100
AcDbEntity
  8
0
  6
Continuous
 62
     8
370
    25
100
AcDbVertex
100
AcDb2dVertex
 10
227.6001301678
 20
156.8430606671
 30
0.0
  0
VERTEX
  5
346
330
319
100
AcDbEntity
  8
0
  6
Continuous
 62
     8
370
    25
100
AcDbVertex
100
AcDb2dVertex
 10
228.3727285163
 20
157.3341044878
 30
0.0
  0
VERTEX
  5
347
330
319
100
AcDbEntity
  8
0
  6
Continuous
 62
     8
370
    25
100
AcDbVertex
100
AcDb2dVertex
 10
229.1227142548
 20
157.8393632444
 30
0.0
  0
VERTEX
  5
348
330
319
100
AcDbEntity
  8
0
  6
Continuous
 62
     8
370
    25
100
AcDbVertex
100
AcDb2dVertex
 10
229.8491837089
 20
158.3582281395
 30
0.0
  0
VERTEX
  5
349
330
319
100
AcDbEntity
  8
0
  6
Continuous
 62
     8
370
    25
100
AcDbVertex
100
AcDb2dVertex
 10
230.5512615394
 20
158.8900739813
 30
0.0
  0
VERTEX
  5
34A
330
319
100
AcDbEntity
  8
0
  6
Continuous
 62
     8
370
    25
100
AcDbVertex
100
AcDb2dVertex
 10
231.2281017973
 20
159.434259937
 30
0.0
  0
VERTEX
  5
34B
330
319
100
AcDbEntity
  8
0
  6
Continuous
 62
     8
370
    25
100
AcDbVertex
100
AcDb2dVertex
 10
231.8788889427
 20
159.9901303048
 30
0.0
  0
VERTEX
  5
34C
330
319
100
AcDbEntity
  8
0
  6
Continuous
 62
     8
370
    25
100
AcDbVertex
100
AcDb2dVertex
 10
232.5028388279
 20
160.5570153043
 30
0.0
  0
VERTEX
  5
34D
330
319
100
AcDbEntity
  8
0
  6
Continuous
 62
     8
370
    25
100
AcDbVertex
100
AcDb2dVertex
 10
233.0991996418
 20
161.1342318832
 30
0.0
  0
VERTEX
  5
34E
330
319
100
AcDbEntity
  8
0
  6
Continuous
 62
     8
370
    25
100
AcDbVertex
100
AcDb2dVertex
 10
233.6672528161
 20
161.7210845405
 30
0.0
  0
VERTEX
  5
34F
330
319
100
AcDbEntity
  8
0
  6
Continuous
 62
     8
370
    25
100
AcDbVertex
100
AcDb2dVertex
 10
234.206313891
 20
162.3168661645
 30
0.0
  0
VERTEX
  5
350
330
319
100
AcDbEntity
  8
0
  6
Continuous
 62
     8
370
    25
100
AcDbVertex
100
AcDb2dVertex
 10
234.7157333398
 20
162.9208588846
 30
0.0
  0
VERTEX
  5
351
330
319
100
AcDbEntity
  8
0
  6
Continuous
 62
     8
370
    25
100
AcDbVertex
100
AcDb2dVertex
 10
235.1948973518
 20
163.5323349367
 30
0.0
  0
VERTEX
  5
352
330
319
100
AcDbEntity
  8
0
  6
Continuous
 62
     8
370
    25
100
AcDbVertex
100
AcDb2dVertex
 10
235.6432285717
 20
164.1505575398
 30
0.0
  0
VERTEX
  5
353
330
319
100
AcDbEntity
  8
0
  6
Continuous
 62
     8
370
    25
100
AcDbVertex
100
AcDb2dVertex
 10
236.0601867953
 20
164.7747817839
 30
0.0
  0
VERTEX
  5
354
330
319
100
AcDbEntity
  8
0
  6
Continuous
 62
     8
370
    25
100
AcDbVertex
100
AcDb2dVertex
 10
236.4452696204
 20
165.4042555272
 30
0.0
  0
VERTEX
  5
355
330
319
100
AcDbEntity
  8
0
  6
Continuous
 62
     8
370
    25
100
AcDbVertex
100
AcDb2dVertex
 10
236.7980130522
 20
166.038220303
 30
0.0
  0
VERTEX
  5
356
330
319
100
AcDbEntity
  8
0
  6
Continuous
 62
     8
370
    25
100
AcDbVertex
100
AcDb2dVertex
 10
237.1179920622
 20
166.6759122331
 30
0.0
  0
VERTEX
  5
357
330
319
100
AcDbEntity
  8
0
  6
Continuous
 62
     8
370
    25
100
AcDbVertex
100
AcDb2dVertex
 10
237.4048211009
 20
167.3165629484
 30
0.0
  0
VERTEX
  5
358
330
319
100
AcDbEntity
  8
0
  6
Continuous
 62
     8
370
    25
100
AcDbVertex
100
AcDb2dVertex
 10
237.6581545614
 20
167.9594005147
 30
0.0
  0
VERTEX
  5
359
330
319
100
AcDbEntity
  8
0
  6
Continuous
 62
     8
370
    25
100
AcDbVertex
100
AcDb2dVertex
 10
237.8776871967
 20
168.6036503628
 30
0.0
  0
VERTEX
  5
35A
330
319
100
AcDbEntity
  8
0
  6
Continuous
 62
     8
370
    25
100
AcDbVertex
100
AcDb2dVertex
 10
238.0631544871
 20
169.2485362217
 30
0.0
  0
VERTEX
  5
35B
330
319
100
AcDbEntity
  8
0
  6
Continuous
 62
     8
370
    25
100
AcDbVertex
100
AcDb2dVertex
 10
238.214332959
 20
169.8932810543
 30
0.0
  0
VERTEX
  5
35C
330
319
100
AcDbEntity
  8
0
  6
Continuous
 62
     8
370
    25
100
AcDbVertex
100
AcDb2dVertex
 10
238.331040454
 20
170.5371079933
 30
0.0
  0
VERTEX
  5
35D
330
319
100
AcDbEntity
  8
0
  6
Continuous
 62
     8
370
    25
100
AcDbVertex
100
AcDb2dVertex
 10
238.4131363487
 20
171.1792412773
 30
0.0
  0
VERTEX
  5
35E
330
319
100
AcDbEntity
  8
0
  6
Continuous
 62
     8
370
    25
100
AcDbVertex
100
AcDb2dVertex
 10
238.4605217239
 20
171.8189071857
 30
0.0
  0
VERTEX
  5
35F
330
319
100
AcDbEntity
  8
0
  6
Continuous
 62
     8
370
    25
100
AcDbVertex
100
AcDb2dVertex
 10
238.473139484
 20
172.455334971
 30
0.0
  0
VERTEX
  5
360
330
319
100
AcDbEntity
  8
0
  6
Continuous
 62
     8
370
    25
100
AcDbVertex
100
AcDb2dVertex
 10
238.4509744256
 20
173.0877577873
 30
0.0
  0
VERTEX
  5
361
330
319
100
AcDbEntity
  8
0
  6
Continuous
 62
     8
370
    25
100
AcDbVertex
100
AcDb2dVertex
 10
238.3940532558
 20
173.7154136142
 30
0.0
  0
VERTEX
  5
362
330
319
100
AcDbEntity
  8
0
  6
Continuous
 62
     8
370
    25
100
AcDbVertex
100
AcDb2dVertex
 10
238.3024445601
 20
174.3375461754
 30
0.0
  0
VERTEX
  5
363
330
319
100
AcDbEntity
  8
0
  6
Continuous
 62
     8
370
    25
100
AcDbVertex
100
AcDb2dVertex
 10
238.2877484994
 20
174.4193105785
 30
0.0
  0
SEQEND
  5
364
330
319
100
AcDbEntity
  8
0
  6
Continuous
 62
     8
370
    25
  0
POLYLINE
  5
365
330
A
100
AcDbEntity
  8
0
  6
Continuous
 62
     8
370
    25
100
AcDb2dPolyline
 66
     1
 10
0.0
 20
0.0
 30
0.0
 75
     5
  0
VERTEX
  5
366
330
365
100
AcDbEntity
  8
0
  6
Continuous
 62
     8
370
    25
100
AcDbVertex
100
AcDb2dVertex
 10
180.9292035216
 20
163.8154210152
 30
0.0
  0
VERTEX
  5
367
330
365
100
AcDbEntity
  8
0
  6
Continuous
 62
     8
370
    25
100
AcDbVertex
100
AcDb2dVertex
 10
180.9680627583
 20
163.616682009
 30
0.0
  0
VERTEX
  5
368
330
365
100
AcDbEntity
  8
0
  6
Continuous
 62
     8
370
    25
100
AcDbVertex
100
AcDb2dVertex
 10
181.1114827515
 20
163.0042375593
 30
0.0
  0
VERTEX
  5
369
330
365
100
AcDbEntity
  8
0
  6
Continuous
 62
     8
370
    25
100
AcDbVertex
100
AcDb2dVertex
 10
181.2892362547
 20
162.3991759767
 30
0.0
  0
VERTEX
  5
36A
330
365
100
AcDbEntity
  8
0
  6
Continuous
 62
     8
370
    25
100
AcDbVertex
100
AcDb2dVertex
 10
181.5011090888
 20
161.8022263134
 30
0.0
  0
VERTEX
  5
36B
330
365
100
AcDbEntity
  8
0
  6
Continuous
 62
     8
370
    25
100
AcDbVertex
100
AcDb2dVertex
 10
181.7468459636
 20
161.2141078473
 30
0.0
  0
VERTEX
  5
36C
330
365
100
AcDbEntity
  8
0
  6
Continuous
 62
     8
370
    25
100
AcDbVertex
100
AcDb2dVertex
 10
182.0261507853
 20
160.6355292152
 30
0.0
  0
VERTEX
  5
36D
330
365
100
AcDbEntity
  8
0
  6
Continuous
 62
     8
370
    25
100
AcDbVertex
100
AcDb2dVertex
 10
182.3386870132
 20
160.0671875593
 30
0.0
  0
VERTEX
  5
36E
330
365
100
AcDbEntity
  8
0
  6
Continuous
 62
     8
370
    25
100
AcDbVertex
100
AcDb2dVertex
 10
182.6840780657
 20
159.5097676872
 30
0.0
  0
VERTEX
  5
36F
330
365
100
AcDbEntity
  8
0
  6
Continuous
 62
     8
370
    25
100
AcDbVertex
100
AcDb2dVertex
 10
183.0619077734
 20
158.9639412462
 30
0.0
  0
VERTEX
  5
370
330
365
100
AcDbEntity
  8
0
  6
Continuous
 62
     8
370
    25
100
AcDbVertex
100
AcDb2dVertex
 10
183.471720881
 20
158.4303659149
 30
0.0
  0
VERTEX
  5
371
330
365
100
AcDbEntity
  8
0
  6
Continuous
 62
     8
370
    25
100
AcDbVertex
100
AcDb2dVertex
 10
183.9130235954
 20
157.9096846098
 30
0.0
  0
VERTEX
  5
372
330
365
100
AcDbEntity
  8
0
  6
Continuous
 62
     8
370
    25
100
AcDbVertex
100
AcDb2dVertex
 10
184.3852841814
 20
157.4025247114
 30
0.0
  0
VERTEX
  5
373
330
365
100
AcDbEntity
  8
0
  6
Continuous
 62
     8
370
    25
100
AcDbVertex
100
AcDb2dVertex
 10
184.8879336017
 20
156.9094973079
 30
0.0
  0
VERTEX
  5
374
330
365
100
AcDbEntity
  8
0
  6
Continuous
 62
     8
370
    25
100
AcDbVertex
100
AcDb2dVertex
 10
185.420366203
 20
156.4311964589
 30
0.0
  0
VERTEX
  5
375
330
365
100
AcDbEntity
  8
0
  6
Continuous
 62
     8
370
    25
100
AcDbVertex
100
AcDb2dVertex
 10
185.9819404454
 20
155.9681984796
 30
0.0
  0
VERTEX
  5
376
330
365
100
AcDbEntity
  8
0
  6
Continuous
 62
     8
370
    25
100
AcDbVertex
100
AcDb2dVertex
 10
186.5719796756
 20
155.5210612466
 30
0.0
  0
VERTEX
  5
377
330
365
100
AcDbEntity
  8
0
  6
Continuous
 62
     8
370
    25
100
AcDbVertex
100
AcDb2dVertex
 10
187.1897729424
 20
155.0903235255
 30
0.0
  0
VERTEX
  5
378
330
365
100
AcDbEntity
  8
0
  6
Continuous
 62
     8
370
    25
100
AcDbVertex
100
AcDb2dVertex
 10
187.834575853
 20
154.6765043215
 30
0.0
  0
VERTEX
  5
379
330
365
100
AcDbEntity
  8
0
  6
Continuous
 62
     8
370
    25
100
AcDbVertex
100
AcDb2dVertex
 10
188.5056114702
 20
154.2801022547
 30
0.0
  0
SEQEND
  5
37A
330
365
100
AcDbEntity
  8
0
  6
Continuous
 62
     8
370
    25
  0
POLYLINE
  5
37B
330
A
100
AcDbEntity
  8
0
  6
Continuous
 62
     8
370
    25
100
AcDb2dPolyline
 66
     1
 10
0.0
 20
0.0
 30
0.0
 75
     5
  0
VERTEX
  5
37C
330
37B
100
AcDbEntity
  8
0
  6
Continuous
 62
     8
370
    25
100
AcDbVertex
100
AcDb2dVertex
 10
189.7416862052
 20
167.8454958063
 30
0.0
  0
VERTEX
  5
37D
330
37B
100
AcDbEntity
  8
0
  6
Continuous
 62
     8
370
    25
100
AcDbVertex
100
AcDb2dVertex
 10
190.3828833065
 20
167.4983395173
 30
0.0
  0
VERTEX
  5
37E
330
37B
100
AcDbEntity
  8
0
  6
Continuous
 62
     8
370
    25
100
AcDbVertex
100
AcDb2dVertex
 10
191.0486422264
 20
167.1696148298
 30
0.0
  0
VERTEX
  5
37F
330
37B
100
AcDbEntity
  8
0
  6
Continuous
 62
     8
370
    25
100
AcDbVertex
100
AcDb2dVertex
 10
191.7380092716
 20
166.8597926387
 30
0.0
  0
VERTEX
  5
380
330
37B
100
AcDbEntity
  8
0
  6
Continuous
 62
     8
370
    25
100
AcDbVertex
100
AcDb2dVertex
 10
192.4499969305
 20
166.5693167612
 30
0.0
  0
VERTEX
  5
381
330
37B
100
AcDbEntity
  8
0
  6
Continuous
 62
     8
370
    25
100
AcDbVertex
100
AcDb2dVertex
 10
193.1835852876
 20
166.2986033014
 30
0.0
  0
VERTEX
  5
382
330
37B
100
AcDbEntity
  8
0
  6
Continuous
 62
     8
370
    25
100
AcDbVertex
100
AcDb2dVertex
 10
193.9377234847
 20
166.0480400535
 30
0.0
  0
VERTEX
  5
383
330
37B
100
AcDbEntity
  8
0
  6
Continuous
 62
     8
370
    25
100
AcDbVertex
100
AcDb2dVertex
 10
194.7113312261
 20
165.8179859472
 30
0.0
  0
VERTEX
  5
384
330
37B
100
AcDbEntity
  8
0
  6
Continuous
 62
     8
370
    25
100
AcDbVertex
100
AcDb2dVertex
 10
195.5033003261
 20
165.6087705325
 30
0.0
  0
VERTEX
  5
385
330
37B
100
AcDbEntity
  8
0
  6
Continuous
 62
     8
370
    25
100
AcDbVertex
100
AcDb2dVertex
 10
196.3124962966
 20
165.4206935087
 30
0.0
  0
VERTEX
  5
386
330
37B
100
AcDbEntity
  8
0
  6
Continuous
 62
     8
370
    25
100
AcDbVertex
100
AcDb2dVertex
 10
197.1377599722
 20
165.2540242942
 30
0.0
  0
VERTEX
  5
387
330
37B
100
AcDbEntity
  8
0
  6
Continuous
 62
     8
370
    25
100
AcDbVertex
100
AcDb2dVertex
 10
197.9779091707
 20
165.109001641
 30
0.0
  0
VERTEX
  5
388
330
37B
100
AcDbEntity
  8
0
  6
Continuous
 62
     8
370
    25
100
AcDbVertex
100
AcDb2dVertex
 10
198.8317403863
 20
164.9858332928
 30
0.0
  0
VERTEX
  5
389
330
37B
100
AcDbEntity
  8
0
  6
Continuous
 62
     8
370
    25
100
AcDbVertex
100
AcDb2dVertex
 10
199.6980305141
 20
164.884695687
 30
0.0
  0
VERTEX
  5
38A
330
37B
100
AcDbEntity
  8
0
  6
Continuous
 62
     8
370
    25
100
AcDbVertex
100
AcDb2dVertex
 10
200.5755386019
 20
164.8057337023
 30
0.0
  0
VERTEX
  5
38B
330
37B
100
AcDbEntity
  8
0
  6
Continuous
 62
     8
370
    25
100
AcDbVertex
100
AcDb2dVertex
 10
201.4630076278
 20
164.7490604508
 30
0.0
  0
VERTEX
  5
38C
330
37B
100
AcDbEntity
  8
0
  6
Continuous
 62
     8
370
    25
100
AcDbVertex
100
AcDb2dVertex
 10
202.3591663008
 20
164.7147571166
 30
0.0
  0
VERTEX
  5
38D
330
37B
100
AcDbEntity
  8
0
  6
Continuous
 62
     8
370
    25
100
AcDbVertex
100
AcDb2dVertex
 10
203.2627308825
 20
164.7028728389
 30
0.0
  0
VERTEX
  5
38E
330
37B
100
AcDbEntity
  8
0
  6
Continuous
 62
     8
370
    25
100
AcDbVertex
100
AcDb2dVertex
 10
204.1724070251
 20
164.7134246416
 30
0.0
  0
VERTEX
  5
38F
330
37B
100
AcDbEntity
  8
0
  6
Continuous
 62
     8
370
    25
100
AcDbVertex
100
AcDb2dVertex
 10
205.0868916264
 20
164.7463974095
 30
0.0
  0
VERTEX
  5
390
330
37B
100
AcDbEntity
  8
0
  6
Continuous
 62
     8
370
    25
100
AcDbVertex
100
AcDb2dVertex
 10
206.004874696
 20
164.8017439094
 30
0.0
  0
VERTEX
  5
391
330
37B
100
AcDbEntity
  8
0
  6
Continuous
 62
     8
370
    25
100
AcDbVertex
100
AcDb2dVertex
 10
206.925041232
 20
164.879384858
 30
0.0
  0
VERTEX
  5
392
330
37B
100
AcDbEntity
  8
0
  6
Continuous
 62
     8
370
    25
100
AcDbVertex
100
AcDb2dVertex
 10
207.8460731047
 20
164.9792090353
 30
0.0
  0
VERTEX
  5
393
330
37B
100
AcDbEntity
  8
0
  6
Continuous
 62
     8
370
    25
100
AcDbVertex
100
AcDb2dVertex
 10
208.7666509448
 20
165.1010734443
 30
0.0
  0
VERTEX
  5
394
330
37B
100
AcDbEntity
  8
0
  6
Continuous
 62
     8
370
    25
100
AcDbVertex
100
AcDb2dVertex
 10
209.6854560335
 20
165.2448035152
 30
0.0
  0
VERTEX
  5
395
330
37B
100
AcDbEntity
  8
0
  6
Continuous
 62
     8
370
    25
100
AcDbVertex
100
AcDb2dVertex
 10
210.6011721912
 20
165.4101933562
 30
0.0
  0
VERTEX
  5
396
330
37B
100
AcDbEntity
  8
0
  6
Continuous
 62
     8
370
    25
100
AcDbVertex
100
AcDb2dVertex
 10
211.5124876635
 20
165.5970060479
 30
0.0
  0
VERTEX
  5
397
330
37B
100
AcDbEntity
  8
0
  6
Continuous
 62
     8
370
    25
100
AcDbVertex
100
AcDb2dVertex
 10
212.4180969996
 20
165.8049739829
 30
0.0
  0
VERTEX
  5
398
330
37B
100
AcDbEntity
  8
0
  6
Continuous
 62
     8
370
    25
100
AcDbVertex
100
AcDb2dVertex
 10
213.316702923
 20
166.0337992491
 30
0.0
  0
VERTEX
  5
399
330
37B
100
AcDbEntity
  8
0
  6
Continuous
 62
     8
370
    25
100
AcDbVertex
100
AcDb2dVertex
 10
214.2070181892
 20
166.2831540566
 30
0.0
  0
VERTEX
  5
39A
330
37B
100
AcDbEntity
  8
0
  6
Continuous
 62
     8
370
    25
100
AcDbVertex
100
AcDb2dVertex
 10
215.0877674304
 20
166.552681207
 30
0.0
  0
VERTEX
  5
39B
330
37B
100
AcDbEntity
  8
0
  6
Continuous
 62
     8
370
    25
100
AcDbVertex
100
AcDb2dVertex
 10
215.9576889815
 20
166.8419946053
 30
0.0
  0
VERTEX
  5
39C
330
37B
100
AcDbEntity
  8
0
  6
Continuous
 62
     8
370
    25
100
AcDbVertex
100
AcDb2dVertex
 10
216.8155366885
 20
167.1506798128
 30
0.0
  0
VERTEX
  5
39D
330
37B
100
AcDbEntity
  8
0
  6
Continuous
 62
     8
370
    25
100
AcDbVertex
100
AcDb2dVertex
 10
217.6600816927
 20
167.4782946409
 30
0.0
  0
VERTEX
  5
39E
330
37B
100
AcDbEntity
  8
0
  6
Continuous
 62
     8
370
    25
100
AcDbVertex
100
AcDb2dVertex
 10
218.4901141915
 20
167.8243697845
 30
0.0
  0
VERTEX
  5
39F
330
37B
100
AcDbEntity
  8
0
  6
Continuous
 62
     8
370
    25
100
AcDbVertex
100
AcDb2dVertex
 10
219.3044451715
 20
168.1884094944
 30
0.0
  0
VERTEX
  5
3A0
330
37B
100
AcDbEntity
  8
0
  6
Continuous
 62
     8
370
    25
100
AcDbVertex
100
AcDb2dVertex
 10
220.1019081112
 20
168.5698922871
 30
0.0
  0
VERTEX
  5
3A1
330
37B
100
AcDbEntity
  8
0
  6
Continuous
 62
     8
370
    25
100
AcDbVertex
100
AcDb2dVertex
 10
220.8813606528
 20
168.9682716922
 30
0.0
  0
VERTEX
  5
3A2
330
37B
100
AcDbEntity
  8
0
  6
Continuous
 62
     8
370
    25
100
AcDbVertex
100
AcDb2dVertex
 10
221.6416862379
 20
169.3829770351
 30
0.0
  0
VERTEX
  5
3A3
330
37B
100
AcDbEntity
  8
0
  6
Continuous
 62
     8
370
    25
100
AcDbVertex
100
AcDb2dVertex
 10
222.3817957075
 20
169.8134142543
 30
0.0
  0
VERTEX
  5
3A4
330
37B
100
AcDbEntity
  8
0
  6
Continuous
 62
     8
370
    25
100
AcDbVertex
100
AcDb2dVertex
 10
223.1006288619
 20
170.2589667527
 30
0.0
  0
VERTEX
  5
3A5
330
37B
100
AcDbEntity
  8
0
  6
Continuous
 62
     8
370
    25
100
AcDbVertex
100
AcDb2dVertex
 10
223.7971559796
 20
170.7189962806
 30
0.0
  0
VERTEX
  5
3A6
330
37B
100
AcDbEntity
  8
0
  6
Continuous
 62
     8
370
    25
100
AcDbVertex
100
AcDb2dVertex
 10
224.4703792921
 20
171.1928438501
 30
0.0
  0
VERTEX
  5
3A7
330
37B
100
AcDbEntity
  8
0
  6
Continuous
 62
     8
370
    25
100
AcDbVertex
100
AcDb2dVertex
 10
225.1193344136
 20
171.6798306793
 30
0.0
  0
VERTEX
  5
3A8
330
37B
100
AcDbEntity
  8
0
  6
Continuous
 62
     8
370
    25
100
AcDbVertex
100
AcDb2dVertex
 10
225.743091722
 20
172.179259164
 30
0.0
  0
VERTEX
  5
3A9
330
37B
100
AcDbEntity
  8
0
  6
Continuous
 62
     8
370
    25
100
AcDbVertex
100
AcDb2dVertex
 10
226.340757691
 20
172.6904138779
 30
0.0
  0
VERTEX
  5
3AA
330
37B
100
AcDbEntity
  8
0
  6
Continuous
 62
     8
370
    25
100
AcDbVertex
100
AcDb2dVertex
 10
226.91147617
 20
173.2125625967
 30
0.0
  0
VERTEX
  5
3AB
330
37B
100
AcDbEntity
  8
0
  6
Continuous
 62
     8
370
    25
100
AcDbVertex
100
AcDb2dVertex
 10
227.4544296101
 20
173.7449573475
 30
0.0
  0
VERTEX
  5
3AC
330
37B
100
AcDbEntity
  8
0
  6
Continuous
 62
     8
370
    25
100
AcDbVertex
100
AcDb2dVertex
 10
227.9688402359
 20
174.2868354798
 30
0.0
  0
VERTEX
  5
3AD
330
37B
100
AcDbEntity
  8
0
  6
Continuous
 62
     8
370
    25
100
AcDbVertex
100
AcDb2dVertex
 10
228.453971159
 20
174.8374207585
 30
0.0
  0
VERTEX
  5
3AE
330
37B
100
AcDbEntity
  8
0
  6
Continuous
 62
     8
370
    25
100
AcDbVertex
100
AcDb2dVertex
 10
228.909127434
 20
175.3959244754
 30
0.0
  0
VERTEX
  5
3AF
330
37B
100
AcDbEntity
  8
0
  6
Continuous
 62
     8
370
    25
100
AcDbVertex
100
AcDb2dVertex
 10
229.333657054
 20
175.9615465794
 30
0.0
  0
VERTEX
  5
3B0
330
37B
100
AcDbEntity
  8
0
  6
Continuous
 62
     8
370
    25
100
AcDbVertex
100
AcDb2dVertex
 10
229.7269518844
 20
176.5334768222
 30
0.0
  0
VERTEX
  5
3B1
330
37B
100
AcDbEntity
  8
0
  6
Continuous
 62
     8
370
    25
100
AcDbVertex
100
AcDb2dVertex
 10
230.0884485342
 20
177.1108959193
 30
0.0
  0
VERTEX
  5
3B2
330
37B
100
AcDbEntity
  8
0
  6
Continuous
 62
     8
370
    25
100
AcDbVertex
100
AcDb2dVertex
 10
230.4176291628
 20
177.6929767234
 30
0.0
  0
VERTEX
  5
3B3
330
37B
100
AcDbEntity
  8
0
  6
Continuous
 62
     8
370
    25
100
AcDbVertex
100
AcDb2dVertex
 10
230.7140222222
 20
178.2788854094
 30
0.0
  0
VERTEX
  5
3B4
330
37B
100
AcDbEntity
  8
0
  6
Continuous
 62
     8
370
    25
100
AcDbVertex
100
AcDb2dVertex
 10
230.9772031321
 20
178.8677826686
 30
0.0
  0
VERTEX
  5
3B5
330
37B
100
AcDbEntity
  8
0
  6
Continuous
 62
     8
370
    25
100
AcDbVertex
100
AcDb2dVertex
 10
231.2067948886
 20
179.4588249115
 30
0.0
  0
VERTEX
  5
3B6
330
37B
100
AcDbEntity
  8
0
  6
Continuous
 62
     8
370
    25
100
AcDbVertex
100
AcDb2dVertex
 10
231.4024686035
 20
180.0511654757
 30
0.0
  0
VERTEX
  5
3B7
330
37B
100
AcDbEntity
  8
0
  6
Continuous
 62
     8
370
    25
100
AcDbVertex
100
AcDb2dVertex
 10
231.5639439762
 20
180.643955839
 30
0.0
  0
VERTEX
  5
3B8
330
37B
100
AcDbEntity
  8
0
  6
Continuous
 62
     8
370
    25
100
AcDbVertex
100
AcDb2dVertex
 10
231.6909896948
 20
181.2363468351
 30
0.0
  0
VERTEX
  5
3B9
330
37B
100
AcDbEntity
  8
0
  6
Continuous
 62
     8
370
    25
100
AcDbVertex
100
AcDb2dVertex
 10
231.7834237674
 20
181.8274898694
 30
0.0
  0
VERTEX
  5
3BA
330
37B
100
AcDbEntity
  8
0
  6
Continuous
 62
     8
370
    25
100
AcDbVertex
100
AcDb2dVertex
 10
231.8411137832
 20
182.4165381354
 30
0.0
  0
VERTEX
  5
3BB
330
37B
100
AcDbEntity
  8
0
  6
Continuous
 62
     8
370
    25
100
AcDbVertex
100
AcDb2dVertex
 10
231.8639771018
 20
183.0026478269
 30
0.0
  0
VERTEX
  5
3BC
330
37B
100
AcDbEntity
  8
0
  6
Continuous
 62
     8
370
    25
100
AcDbVertex
100
AcDb2dVertex
 10
231.8519809717
 20
183.5849793476
 30
0.0
  0
VERTEX
  5
3BD
330
37B
100
AcDbEntity
  8
0
  6
Continuous
 62
     8
370
    25
100
AcDbVertex
100
AcDb2dVertex
 10
231.8051425773
 20
184.1626985131
 30
0.0
  0
VERTEX
  5
3BE
330
37B
100
AcDbEntity
  8
0
  6
Continuous
 62
     8
370
    25
100
AcDbVertex
100
AcDb2dVertex
 10
231.723529014
 20
184.7349777463
 30
0.0
  0
VERTEX
  5
3BF
330
37B
100
AcDbEntity
  8
0
  6
Continuous
 62
     8
370
    25
100
AcDbVertex
100
AcDb2dVertex
 10
231.6072571925
 20
185.3009972628
 30
0.0
  0
VERTEX
  5
3C0
330
37B
100
AcDbEntity
  8
0
  6
Continuous
 62
     8
370
    25
100
AcDbVertex
100
AcDb2dVertex
 10
231.4564936712
 20
185.8599462449
 30
0.0
  0
VERTEX
  5
3C1
330
37B
100
AcDbEntity
  8
0
  6
Continuous
 62
     8
370
    25
100
AcDbVertex
100
AcDb2dVertex
 10
231.2714544172
 20
186.4110240037
 30
0.0
  0
VERTEX
  5
3C2
330
37B
100
AcDbEntity
  8
0
  6
Continuous
 62
     8
370
    25
100
AcDbVertex
100
AcDb2dVertex
 10
231.0524044976
 20
186.9534411256
 30
0.0
  0
VERTEX
  5
3C3
330
37B
100
AcDbEntity
  8
0
  6
Continuous
 62
     8
370
    25
100
AcDbVertex
100
AcDb2dVertex
 10
230.7996576991
 20
187.4864206033
 30
0.0
  0
VERTEX
  5
3C4
330
37B
100
AcDbEntity
  8
0
  6
Continuous
 62
     8
370
    25
100
AcDbVertex
100
AcDb2dVertex
 10
230.5135760793
 20
188.0091989488
 30
0.0
  0
VERTEX
  5
3C5
330
37B
100
AcDbEntity
  8
0
  6
Continuous
 62
     8
370
    25
100
AcDbVertex
100
AcDb2dVertex
 10
230.1945694473
 20
188.5210272872
 30
0.0
  0
VERTEX
  5
3C6
330
37B
100
AcDbEntity
  8
0
  6
Continuous
 62
     8
370
    25
100
AcDbVertex
100
AcDb2dVertex
 10
229.8430947769
 20
189.0211724293
 30
0.0
  0
VERTEX
  5
3C7
330
37B
100
AcDbEntity
  8
0
  6
Continuous
 62
     8
370
    25
100
AcDbVertex
100
AcDb2dVertex
 10
229.4596555522
 20
189.508917922
 30
0.0
  0
VERTEX
  5
3C8
330
37B
100
AcDbEntity
  8
0
  6
Continuous
 62
     8
370
    25
100
AcDbVertex
100
AcDb2dVertex
 10
229.0448010464
 20
189.9835650746
 30
0.0
  0
VERTEX
  5
3C9
330
37B
100
AcDbEntity
  8
0
  6
Continuous
 62
     8
370
    25
100
AcDbVertex
100
AcDb2dVertex
 10
228.5991255343
 20
190.4444339596
 30
0.0
  0
VERTEX
  5
3CA
330
37B
100
AcDbEntity
  8
0
  6
Continuous
 62
     8
370
    25
100
AcDbVertex
100
AcDb2dVertex
 10
228.123267442
 20
190.8908643868
 30
0.0
  0
VERTEX
  5
3CB
330
37B
100
AcDbEntity
  8
0
  6
Continuous
 62
     8
370
    25
100
AcDbVertex
100
AcDb2dVertex
 10
227.6179084315
 20
191.3222168489
 30
0.0
  0
VERTEX
  5
3CC
330
37B
100
AcDbEntity
  8
0
  6
Continuous
 62
     8
370
    25
100
AcDbVertex
100
AcDb2dVertex
 10
227.0837724248
 20
191.7378734377
 30
0.0
  0
VERTEX
  5
3CD
330
37B
100
AcDbEntity
  8
0
  6
Continuous
 62
     8
370
    25
100
AcDbVertex
100
AcDb2dVertex
 10
226.5216245666
 20
192.137238729
 30
0.0
  0
VERTEX
  5
3CE
330
37B
100
AcDbEntity
  8
0
  6
Continuous
 62
     8
370
    25
100
AcDbVertex
100
AcDb2dVertex
 10
226.128527194
 20
192.3961716877
 30
0.0
  0
SEQEND
  5
3CF
330
37B
100
AcDbEntity
  8
0
  6
Continuous
 62
     8
370
    25
  0
POLYLINE
  5
3D0
330
A
100
AcDbEntity
  8
0
  6
Continuous
 62
     8
370
    25
100
AcDb2dPolyline
 66
     1
 10
0.0
 20
0.0
 30
0.0
 75
     5
  0
VERTEX
  5
3D1
330
3D0
100
AcDbEntity
  8
0
  6
Continuous
 62
     8
370
    25
100
AcDbVertex
100
AcDb2dVertex
 10
185.857948774
 20
184.9517046726
 30
0.0
  0
VERTEX
  5
3D2
330
3D0
100
AcDbEntity
  8
0
  6
Continuous
 62
     8
370
    25
100
AcDbVertex
100
AcDb2dVertex
 10
185.7245825054
 20
184.7687804553
 30
0.0
  0
VERTEX
  5
3D3
330
3D0
100
AcDbEntity
  8
0
  6
Continuous
 62
     8
370
    25
100
AcDbVertex
100
AcDb2dVertex
 10
185.331287675
 20
184.1968502125
 30
0.0
  0
VERTEX
  5
3D4
330
3D0
100
AcDbEntity
  8
0
  6
Continuous
 62
     8
370
    25
100
AcDbVertex
100
AcDb2dVertex
 10
184.9697910252
 20
183.6194311153
 30
0.0
  0
VERTEX
  5
3D5
330
3D0
100
AcDbEntity
  8
0
  6
Continuous
 62
     8
370
    25
100
AcDbVertex
100
AcDb2dVertex
 10
184.6406103966
 20
183.0373503112
 30
0.0
  0
VERTEX
  5
3D6
330
3D0
100
AcDbEntity
  8
0
  6
Continuous
 62
     8
370
    25
100
AcDbVertex
100
AcDb2dVertex
 10
184.3442173372
 20
182.4514416253
 30
0.0
  0
VERTEX
  5
3D7
330
3D0
100
AcDbEntity
  8
0
  6
Continuous
 62
     8
370
    25
100
AcDbVertex
100
AcDb2dVertex
 10
184.0810364272
 20
181.8625443661
 30
0.0
  0
VERTEX
  5
3D8
330
3D0
100
AcDbEntity
  8
0
  6
Continuous
 62
     8
370
    25
100
AcDbVertex
100
AcDb2dVertex
 10
183.8514446708
 20
181.2715021232
 30
0.0
  0
VERTEX
  5
3D9
330
3D0
100
AcDbEntity
  8
0
  6
Continuous
 62
     8
370
    25
100
AcDbVertex
100
AcDb2dVertex
 10
183.6557709559
 20
180.679161559
 30
0.0
  0
VERTEX
  5
3DA
330
3D0
100
AcDbEntity
  8
0
  6
Continuous
 62
     8
370
    25
100
AcDbVertex
100
AcDb2dVertex
 10
183.4942955832
 20
180.0863711956
 30
0.0
  0
VERTEX
  5
3DB
330
3D0
100
AcDbEntity
  8
0
  6
Continuous
 62
     8
370
    25
100
AcDbVertex
100
AcDb2dVertex
 10
183.3672498646
 20
179.4939801996
 30
0.0
  0
VERTEX
  5
3DC
330
3D0
100
AcDbEntity
  8
0
  6
Continuous
 62
     8
370
    25
100
AcDbVertex
100
AcDb2dVertex
 10
183.274815792
 20
178.9028371652
 30
0.0
  0
VERTEX
  5
3DD
330
3D0
100
AcDbEntity
  8
0
  6
Continuous
 62
     8
370
    25
100
AcDbVertex
100
AcDb2dVertex
 10
183.2171257761
 20
178.3137888993
 30
0.0
  0
VERTEX
  5
3DE
330
3D0
100
AcDbEntity
  8
0
  6
Continuous
 62
     8
370
    25
100
AcDbVertex
100
AcDb2dVertex
 10
183.1942624575
 20
177.7276792077
 30
0.0
  0
VERTEX
  5
3DF
330
3D0
100
AcDbEntity
  8
0
  6
Continuous
 62
     8
370
    25
100
AcDbVertex
100
AcDb2dVertex
 10
183.2062585876
 20
177.1453476871
 30
0.0
  0
VERTEX
  5
3E0
330
3D0
100
AcDbEntity
  8
0
  6
Continuous
 62
     8
370
    25
100
AcDbVertex
100
AcDb2dVertex
 10
183.2530969821
 20
176.5676285215
 30
0.0
  0
VERTEX
  5
3E1
330
3D0
100
AcDbEntity
  8
0
  6
Continuous
 62
     8
370
    25
100
AcDbVertex
100
AcDb2dVertex
 10
183.3347105454
 20
175.9953492883
 30
0.0
  0
VERTEX
  5
3E2
330
3D0
100
AcDbEntity
  8
0
  6
Continuous
 62
     8
370
    25
100
AcDbVertex
100
AcDb2dVertex
 10
183.4509823669
 20
175.4293297719
 30
0.0
  0
VERTEX
  5
3E3
330
3D0
100
AcDbEntity
  8
0
  6
Continuous
 62
     8
370
    25
100
AcDbVertex
100
AcDb2dVertex
 10
183.6017458882
 20
174.8703807897
 30
0.0
  0
VERTEX
  5
3E4
330
3D0
100
AcDbEntity
  8
0
  6
Continuous
 62
     8
370
    25
100
AcDbVertex
100
AcDb2dVertex
 10
183.7867851422
 20
174.3193030309
 30
0.0
  0
VERTEX
  5
3E5
330
3D0
100
AcDbEntity
  8
0
  6
Continuous
 62
     8
370
    25
100
AcDbVertex
100
AcDb2dVertex
 10
184.0058350618
 20
173.776885909
 30
0.0
  0
VERTEX
  5
3E6
330
3D0
100
AcDbEntity
  8
0
  6
Continuous
 62
     8
370
    25
100
AcDbVertex
100
AcDb2dVertex
 10
184.2585818602
 20
173.2439064314
 30
0.0
  0
VERTEX
  5
3E7
330
3D0
100
AcDbEntity
  8
0
  6
Continuous
 62
     8
370
    25
100
AcDbVertex
100
AcDb2dVertex
 10
184.5446634801
 20
172.7211280858
 30
0.0
  0
VERTEX
  5
3E8
330
3D0
100
AcDbEntity
  8
0
  6
Continuous
 62
     8
370
    25
100
AcDbVertex
100
AcDb2dVertex
 10
184.8636701121
 20
172.2092997475
 30
0.0
  0
VERTEX
  5
3E9
330
3D0
100
AcDbEntity
  8
0
  6
Continuous
 62
     8
370
    25
100
AcDbVertex
100
AcDb2dVertex
 10
185.2151447825
 20
171.7091546054
 30
0.0
  0
VERTEX
  5
3EA
330
3D0
100
AcDbEntity
  8
0
  6
Continuous
 62
     8
370
    25
100
AcDbVertex
100
AcDb2dVertex
 10
185.5985840072
 20
171.2214091126
 30
0.0
  0
VERTEX
  5
3EB
330
3D0
100
AcDbEntity
  8
0
  6
Continuous
 62
     8
370
    25
100
AcDbVertex
100
AcDb2dVertex
 10
186.013438513
 20
170.74676196
 30
0.0
  0
VERTEX
  5
3EC
330
3D0
100
AcDbEntity
  8
0
  6
Continuous
 62
     8
370
    25
100
AcDbVertex
100
AcDb2dVertex
 10
186.4591140251
 20
170.285893075
 30
0.0
  0
VERTEX
  5
3ED
330
3D0
100
AcDbEntity
  8
0
  6
Continuous
 62
     8
370
    25
100
AcDbVertex
100
AcDb2dVertex
 10
186.9349721174
 20
169.8394626478
 30
0.0
  0
VERTEX
  5
3EE
330
3D0
100
AcDbEntity
  8
0
  6
Continuous
 62
     8
370
    25
100
AcDbVertex
100
AcDb2dVertex
 10
187.4403311279
 20
169.4081101857
 30
0.0
  0
VERTEX
  5
3EF
330
3D0
100
AcDbEntity
  8
0
  6
Continuous
 62
     8
370
    25
100
AcDbVertex
100
AcDb2dVertex
 10
187.9744671346
 20
168.992453597
 30
0.0
  0
VERTEX
  5
3F0
330
3D0
100
AcDbEntity
  8
0
  6
Continuous
 62
     8
370
    25
100
AcDbVertex
100
AcDb2dVertex
 10
188.5366149928
 20
168.5930883056
 30
0.0
  0
VERTEX
  5
3F1
330
3D0
100
AcDbEntity
  8
0
  6
Continuous
 62
     8
370
    25
100
AcDbVertex
100
AcDb2dVertex
 10
189.1259694312
 20
168.2105863986
 30
0.0
  0
VERTEX
  5
3F2
330
3D0
100
AcDbEntity
  8
0
  6
Continuous
 62
     8
370
    25
100
AcDbVertex
100
AcDb2dVertex
 10
189.7416862052
 20
167.8454958063
 30
0.0
  0
SEQEND
  5
3F3
330
3D0
100
AcDbEntity
  8
0
  6
Continuous
 62
     8
370
    25
  0
MTEXT
  5
3F4
330
A
100
AcDbEntity
  8
0
 62
     7
100
AcDbMText
 10
243.3833333333334
 20
114.3383506944444
 30
0.0
 40
3.031684027777777
 41
0.0
 46
3.083222656249999
 71
     1
 72
     1
  1
{HEC-082K1-NA}
  7
Arial
 73
     1
 44
0.9673603504928806
1001
ACAD
1000
ACAD_MTEXT_DEFINED_HEIGHT_BEGIN
1070
    46
1040
3.083222656249999
1000
ACAD_MTEXT_DEFINED_HEIGHT_END
  0
ENDSEC
  0
SECTION
  2
OBJECTS
  0
DICTIONARY
  5
19
330
0
100
AcDbDictionary
281
     1
  3
ACAD_DETAILVIEWSTYLE
350
443
  3
ACAD_GROUP
350
1A
  3
ACAD_IMAGE_VARS
350
43A
  3
ACAD_LAYOUT
350
1E
  3
ACAD_MATERIAL
350
430
  3
ACAD_MLEADERSTYLE
350
436
  3
ACAD_MLINESTYLE
350
1B
  3
ACAD_PLOTSETTINGS
350
22
  3
ACAD_PLOTSTYLENAME
350
1F
  3
ACAD_SCALELIST
350
3F5
  3
ACAD_SECTIONVIEWSTYLE
350
444
  3
ACAD_TABLESTYLE
350
434
  3
ACAD_VISUALSTYLE
350
417
  3
ACAD_WIPEOUT_VARS
350
23
  3
ACDB_RECOMPOSE_DATA
350
43F
  3
AcDbVariableDictionary
350
43B
  3
APPDATA
350
438
  0
SUN
  5
439
330
15
100
AcDbSun
 90
        1
290
     0
 63
     7
421
 16777215
 40
1.0
291
     1
 91
  2455826
 92
 54000000
292
     0
 70
     2
 71
   256
280
     1
  0
DICTIONARY
  5
443
102
{ACAD_REACTORS
330
19
102
}
330
19
100
AcDbDictionary
281
     1
  0
DICTIONARY
  5
1A
102
{ACAD_REACTORS
330
19
102
}
330
19
100
AcDbDictionary
281
     1
  0
RASTERVARIABLES
  5
43A
102
{ACAD_REACTORS
330
19
102
}
330
19
100
AcDbRasterVariables
 90
        0
 70
     1
 71
     1
 72
     1
  0
DICTIONARY
  5
1E
102
{ACAD_REACTORS
330
19
102
}
330
19
100
AcDbDictionary
281
     1
  3
Layout1
350
21
  3
Model
350
20
  0
DICTIONARY
  5
430
102
{ACAD_REACTORS
330
19
102
}
330
19
100
AcDbDictionary
281
     1
  3
ByBlock
350
432
  3
ByLayer
350
431
  3
Global
350
433
  0
DICTIONARY
  5
436
102
{ACAD_REACTORS
330
19
102
}
330
19
100
AcDbDictionary
281
     1
  3
Standard
350
437
  0
DICTIONARY
  5
1B
102
{ACAD_REACTORS
330
19
102
}
330
19
100
AcDbDictionary
281
     1
  3
Standard
350
1C
  0
DICTIONARY
  5
22
102
{ACAD_REACTORS
330
19
102
}
330
19
100
AcDbDictionary
281
     1
  0
ACDBDICTIONARYWDFLT
  5
1F
102
{ACAD_REACTORS
330
19
102
}
330
19
100
AcDbDictionary
281
     1
  3
Normal
350
1D
100
AcDbDictionaryWithDefault
340
1D
  0
DICTIONARY
  5
3F5
102
{ACAD_REACTORS
330
19
102
}
330
19
100
AcDbDictionary
281
     1
  3
A0
350
3F6
  3
A1
350
3F7
  3
A2
350
3F8
  3
A3
350
3F9
  3
A4
350
3FA
  3
A5
350
3FB
  3
A6
350
3FC
  3
A7
350
3FD
  3
A8
350
3FE
  3
A9
350
3FF
  3
B0
350
400
  3
B1
350
401
  3
B2
350
402
  3
B3
350
403
  3
B4
350
404
  3
B5
350
405
  3
B6
350
406
  3
B7
350
407
  3
B8
350
408
  3
B9
350
409
  3
C0
350
40A
  3
C1
350
40B
  3
C2
350
40C
  3
C3
350
40D
  3
C4
350
40E
  3
C5
350
40F
  3
C6
350
410
  3
C7
350
411
  3
C8
350
412
  3
C9
350
413
  3
D0
350
414
  3
D1
350
415
  3
D2
350
416
  0
DICTIONARY
  5
444
102
{ACAD_REACTORS
330
19
102
}
330
19
100
AcDbDictionary
281
     1
  0
DICTIONARY
  5
434
102
{ACAD_REACTORS
330
19
102
}
330
19
100
AcDbDictionary
281
     1
  3
Standard
350
435
  0
DICTIONARY
  5
417
102
{ACAD_REACTORS
330
19
102
}
330
19
100
AcDbDictionary
281
     1
  3
2dWireframe
350
41C
  3
Basic
350
41F
  3
Brighten
350
423
  3
ColorChange
350
427
  3
Conceptual
350
421
  3
Dim
350
422
  3
EdgeColorOff
350
42A
  3
Facepattern
350
426
  3
Flat
350
418
  3
FlatWithEdges
350
419
  3
Gouraud
350
41A
  3
GouraudWithEdges
350
41B
  3
Hidden
350
41E
  3
JitterOff
350
428
  3
Linepattern
350
425
  3
OverhangOff
350
429
  3
Realistic
350
420
  3
Shaded
350
42F
  3
Shaded with edges
350
42E
  3
Shades of Gray
350
42B
  3
Sketchy
350
42C
  3
Thicken
350
424
  3
Wireframe
350
41D
  3
X-Ray
350
42D
  0
WIPEOUTVARIABLES
  5
23
330
19
100
AcDbWipeoutVariables
 70
     1
  0
XRECORD
  5
43F
102
{ACAD_REACTORS
330
19
102
}
330
19
100
AcDbXrecord
280
     1
 90
        1
330
435
  0
DICTIONARY
  5
43B
102
{ACAD_REACTORS
330
19
102
}
330
19
100
AcDbDictionary
281
     1
  3
CANNOSCALE
350
43C
  3
CMLEADERSTYLE
350
441
  3
CTABLESTYLE
350
440
  3
MSLTSCALE
350
442
  0
DICTIONARY
  5
438
102
{ACAD_REACTORS
330
19
102
}
330
19
100
AcDbDictionary
281
     1
  0
LAYOUT
  5
21
102
{ACAD_REACTORS
330
1E
102
}
330
1E
100
AcDbPlotSettings
  1

  2

  4

  6

 40
0.0
 41
0.0
 42
0.0
 43
0.0
 44
0.0
 45
0.0
 46
0.0
 47
0.0
 48
0.0
 49
0.0
140
0.0
141
0.0
142
1.0
143
1.0
 70
     0
 72
     0
 73
     0
 74
     0
  7

 75
     0
 76
     0
 77
     2
 78
   300
147
1.0
148
0.0
149
0.0
100
AcDbLayout
  1
Layout1
 70
     0
 71
     0
 10
0.0
 20
0.0
 11
0.0
 21
0.0
 12
0.0
 22
0.0
 32
0.0
 14
0.0
 24
0.0
 34
0.0
 15
0.0
 25
0.0
 35
0.0
146
0.0
 13
0.0
 23
0.0
 33
0.0
 16
0.0
 26
0.0
 36
0.0
 17
0.0
 27
0.0
 37
0.0
 76
     0
330
B
  0
LAYOUT
  5
20
102
{ACAD_REACTORS
330
1E
102
}
330
1E
100
AcDbPlotSettings
  1

  2

  4

  6

 40
0.0
 41
0.0
 42
0.0
 43
0.0
 44
0.0
 45
0.0
 46
0.0
 47
0.0
 48
0.0
 49
0.0
140
0.0
141
0.0
142
1.0
143
1.0
 70
  1024
 72
     0
 73
     0
 74
     0
  7

 75
     0
 76
     0
 77
     2
 78
   300
147
1.0
148
0.0
149
0.0
100
AcDbLayout
  1
Model
 70
     0
 71
     1
 10
0.0
 20
0.0
 11
0.0
 21
0.0
 12
0.0
 22
0.0
 32
0.0
 14
180.465410131714
 24
111.2035894097222
 34
0.0
 15
272.9149674479167
 25
205.2942431890582
 35
0.0
146
0.0
 13
0.0
 23
0.0
 33
0.0
 16
0.0
 26
0.0
 36
0.0
 17
0.0
 27
0.0
 37
0.0
 76
     0
330
A
331
15
  0
MATERIAL
  5
432
102
{ACAD_REACTORS
330
430
102
}
330
430
100
AcDbMaterial
  1
ByBlock
 72
     1
 94
      127
  0
MATERIAL
  5
431
102
{ACAD_REACTORS
330
430
102
}
330
430
100
AcDbMaterial
  1
ByLayer
 72
     1
 94
      127
  0
MATERIAL
  5
433
102
{ACAD_REACTORS
330
430
102
}
330
430
100
AcDbMaterial
  1
Global
 72
     1
 94
      127
  0
MLEADERSTYLE
  5
437
102
{ACAD_REACTORS
330
436
102
}
330
436
100
AcDbMLeaderStyle
179
     2
170
     2
171
     1
172
     0
 90
        2
 40
0.0
 41
0.0
173
     1
 91
-1056964608
340
11
 92
       -2
290
     1
 42
2.0
291
     1
 43
8.0
  3
Standard
341
0
 44
4.0
300

342
17
174
     1
178
     1
175
     1
176
     0
 93
-1056964608
 45
4.0
292
     0
297
     0
 46
4.0
343
0
 94
-1056964608
 47
1.0
 49
1.0
140
1.0
293
     1
141
0.0
294
     1
177
     0
142
1.0
295
     0
296
     0
143
3.75
271
     0
272
     9
273
     9
298
     0
  0
MLINESTYLE
  5
1C
102
{ACAD_REACTORS
330
1B
102
}
330
1B
100
AcDbMlineStyle
  2
Standard
 70
     0
  3

 62
     0
 51
90.0
 52
90.0
 71
     2
 49
0.5
 62
   256
  6
BYLAYER
 49
-0.5
 62
   256
  6
BYLAYER
  0
ACDBPLACEHOLDER
  5
1D
102
{ACAD_REACTORS
330
1F
102
}
330
1F
  0
SCALE
  5
3F6
102
{ACAD_REACTORS
330
3F5
102
}
330
3F5
100
AcDbScale
 70
     0
300
1:1
140
1.0
141
1.0
290
     1
  0
SCALE
  5
3F7
102
{ACAD_REACTORS
330
3F5
102
}
330
3F5
100
AcDbScale
 70
     0
300
1:2
140
1.0
141
2.0
290
     0
  0
SCALE
  5
3F8
102
{ACAD_REACTORS
330
3F5
102
}
330
3F5
100
AcDbScale
 70
     0
300
1:4
140
1.0
141
4.0
290
     0
  0
SCALE
  5
3F9
102
{ACAD_REACTORS
330
3F5
102
}
330
3F5
100
AcDbScale
 70
     0
300
1:5
140
1.0
141
5.0
290
     0
  0
SCALE
  5
3FA
102
{ACAD_REACTORS
330
3F5
102
}
330
3F5
100
AcDbScale
 70
     0
300
1:8
140
1.0
141
8.0
290
     0
  0
SCALE
  5
3FB
102
{ACAD_REACTORS
330
3F5
102
}
330
3F5
100
AcDbScale
 70
     0
300
1:10
140
1.0
141
10.0
290
     0
  0
SCALE
  5
3FC
102
{ACAD_REACTORS
330
3F5
102
}
330
3F5
100
AcDbScale
 70
     0
300
1:16
140
1.0
141
16.0
290
     0
  0
SCALE
  5
3FD
102
{ACAD_REACTORS
330
3F5
102
}
330
3F5
100
AcDbScale
 70
     0
300
1:20
140
1.0
141
20.0
290
     0
  0
SCALE
  5
3FE
102
{ACAD_REACTORS
330
3F5
102
}
330
3F5
100
AcDbScale
 70
     0
300
1:30
140
1.0
141
30.0
290
     0
  0
SCALE
  5
3FF
102
{ACAD_REACTORS
330
3F5
102
}
330
3F5
100
AcDbScale
 70
     0
300
1:40
140
1.0
141
40.0
290
     0
  0
SCALE
  5
400
102
{ACAD_REACTORS
330
3F5
102
}
330
3F5
100
AcDbScale
 70
     0
300
1:50
140
1.0
141
50.0
290
     0
  0
SCALE
  5
401
102
{ACAD_REACTORS
330
3F5
102
}
330
3F5
100
AcDbScale
 70
     0
300
1:100
140
1.0
141
100.0
290
     0
  0
SCALE
  5
402
102
{ACAD_REACTORS
330
3F5
102
}
330
3F5
100
AcDbScale
 70
     0
300
2:1
140
2.0
141
1.0
290
     0
  0
SCALE
  5
403
102
{ACAD_REACTORS
330
3F5
102
}
330
3F5
100
AcDbScale
 70
     0
300
4:1
140
4.0
141
1.0
290
     0
  0
SCALE
  5
404
102
{ACAD_REACTORS
330
3F5
102
}
330
3F5
100
AcDbScale
 70
     0
300
8:1
140
8.0
141
1.0
290
     0
  0
SCALE
  5
405
102
{ACAD_REACTORS
330
3F5
102
}
330
3F5
100
AcDbScale
 70
     0
300
10:1
140
10.0
141
1.0
290
     0
  0
SCALE
  5
406
102
{ACAD_REACTORS
330
3F5
102
}
330
3F5
100
AcDbScale
 70
     0
300
100:1
140
100.0
141
1.0
290
     0
  0
SCALE
  5
407
102
{ACAD_REACTORS
330
3F5
102
}
330
3F5
100
AcDbScale
 70
     0
300
1/128" = 1'-0"
140
0.0078125
141
12.0
290
     0
  0
SCALE
  5
408
102
{ACAD_REACTORS
330
3F5
102
}
330
3F5
100
AcDbScale
 70
     0
300
1/64" = 1'-0"
140
0.015625
141
12.0
290
     0
  0
SCALE
  5
409
102
{ACAD_REACTORS
330
3F5
102
}
330
3F5
100
AcDbScale
 70
     0
300
1/32" = 1'-0"
140
0.03125
141
12.0
290
     0
  0
SCALE
  5
40A
102
{ACAD_REACTORS
330
3F5
102
}
330
3F5
100
AcDbScale
 70
     0
300
1/16" = 1'-0"
140
0.0625
141
12.0
290
     0
  0
SCALE
  5
40B
102
{ACAD_REACTORS
330
3F5
102
}
330
3F5
100
AcDbScale
 70
     0
300
3/32" = 1'-0"
140
0.09375
141
12.0
290
     0
  0
SCALE
  5
40C
102
{ACAD_REACTORS
330
3F5
102
}
330
3F5
100
AcDbScale
 70
     0
300
1/8" = 1'-0"
140
0.125
141
12.0
290
     0
  0
SCALE
  5
40D
102
{ACAD_REACTORS
330
3F5
102
}
330
3F5
100
AcDbScale
 70
     0
300
3/16" = 1'-0"
140
0.1875
141
12.0
290
     0
  0
SCALE
  5
40E
102
{ACAD_REACTORS
330
3F5
102
}
330
3F5
100
AcDbScale
 70
     0
300
1/4" = 1'-0"
140
0.25
141
12.0
290
     0
  0
SCALE
  5
40F
102
{ACAD_REACTORS
330
3F5
102
}
330
3F5
100
AcDbScale
 70
     0
300
3/8" = 1'-0"
140
0.375
141
12.0
290
     0
  0
SCALE
  5
410
102
{ACAD_REACTORS
330
3F5
102
}
330
3F5
100
AcDbScale
 70
     0
300
1/2" = 1'-0"
140
0.5
141
12.0
290
     0
  0
SCALE
  5
411
102
{ACAD_REACTORS
330
3F5
102
}
330
3F5
100
AcDbScale
 70
     0
300
3/4" = 1'-0"
140
0.75
141
12.0
290
     0
  0
SCALE
  5
412
102
{ACAD_REACTORS
330
3F5
102
}
330
3F5
100
AcDbScale
 70
     0
300
1" = 1'-0"
140
1.0
141
12.0
290
     0
  0
SCALE
  5
413
102
{ACAD_REACTORS
330
3F5
102
}
330
3F5
100
AcDbScale
 70
     0
300
1-1/2" = 1'-0"
140
1.5
141
12.0
290
     0
  0
SCALE
  5
414
102
{ACAD_REACTORS
330
3F5
102
}
330
3F5
100
AcDbScale
 70
     0
300
3" = 1'-0"
140
3.0
141
12.0
290
     0
  0
SCALE
  5
415
102
{ACAD_REACTORS
330
3F5
102
}
330
3F5
100
AcDbScale
 70
     0
300
6" = 1'-0"
140
6.0
141
12.0
290
     0
  0
SCALE
  5
416
102
{ACAD_REACTORS
330
3F5
102
}
330
3F5
100
AcDbScale
 70
     0
300
1'-0" = 1'-0"
140
12.0
141
12.0
290
     0
  0
TABLESTYLE
  5
435
102
{ACAD_REACTORS
330
434
102
}
102
{ACAD_XDICTIONARY
360
43D
102
}
330
434
100
AcDbTableStyle
  3
Standard
 70
     0
 71
     0
 40
0.06
 41
0.06
280
     0
281
     0
  7
Standard
140
4.5
170
     2
 62
     0
 63
   257
283
     0
 90
        4
 91
        0
  1

274
    -2
284
     1
 64
     0
275
    -2
285
     1
 65
     0
276
    -2
286
     1
 66
     0
277
    -2
287
     1
 67
     0
278
    -2
288
     1
 68
     0
279
    -2
289
     1
 69
     0
  7
Standard
140
6.0
170
     5
 62
     0
 63
   257
283
     0
 90
        4
 91
        0
  1

274
    -2
284
     1
 64
     0
275
    -2
285
     1
 65
     0
276
    -2
286
     1
 66
     0
277
    -2
287
     1
 67
     0
278
    -2
288
     1
 68
     0
279
    -2
289
     1
 69
     0
  7
Standard
140
4.5
170
     5
 62
     0
 63
   257
283
     0
 90
        4
 91
        0
  1

274
    -2
284
     1
 64
     0
275
    -2
285
     1
 65
     0
276
    -2
286
     1
 66
     0
277
    -2
287
     1
 67
     0
278
    -2
288
     1
 68
     0
279
    -2
289
     1
 69
     0
  0
VISUALSTYLE
  5
41C
102
{ACAD_REACTORS
330
417
102
}
330
417
100
AcDbVisualStyle
  2
2dWireframe
 70
     4
177
     3
291
     0
 70
    58
 90
        0
176
     1
 90
        2
176
     1
 90
        0
176
     1
 90
        0
176
     1
 40
0.6
176
     1
 40
30.0
176
     1
 62
     7
420
 16777215
176
     1
 90
        1
176
     1
 90
        4
176
     1
 62
     7
176
     1
 62
   257
176
     1
 90
        1
176
     1
 90
        1
176
     1
 40
1.0
176
     1
 90
        0
176
     1
 62
   257
176
     1
 40
1.0
176
     1
 90
        1
176
     1
 90
        6
176
     1
 90
        2
176
     1
 62
     7
176
     1
 90
        5
176
     1
 90
        0
176
     1
 90
        0
176
     1
290
     0
176
     1
 90
        1
176
     1
 40
0.0
176
     1
 90
        0
176
     1
290
     1
176
     1
290
     1
176
     1
290
     0
176
     1
290
     0
176
     1
290
     0
176
     1
290
     0
176
     1
290
     0
176
     1
290
     0
176
     1
290
     0
176
     1
 90
       50
176
     1
 40
0.0
176
     1
 40
1.0
176
     1
 90
        0
176
     1
 62
    18
420
        0
176
     1
 90
       50
176
     1
 90
        3
176
     1
 62
     5
420
      255
176
     1
290
     0
176
     1
 90
       50
176
     1
 90
       50
176
     1
 90
       50
176
     1
290
     0
176
     1
 90
       50
176
     1
 62
   256
176
     0
 40
1.0
176
     0
 90
        2
176
     1
  1
strokes_ogs.tif
176
     1
290
     0
176
     1
 40
1.0
176
     1
 40
1.0
176
     1
  0
VISUALSTYLE
  5
41F
102
{ACAD_REACTORS
330
417
102
}
330
417
100
AcDbVisualStyle
  2
Basic
 70
     7
177
     3
291
     1
 70
    58
 90
        1
176
     1
 90
        0
176
     1
 90
        1
176
     1
 90
        0
176
     1
 40
0.6
176
     1
 40
30.0
176
     1
 62
     7
420
 16777215
176
     1
 90
        0
176
     1
 90
        4
176
     1
 62
     7
176
     1
 62
   257
176
     1
 90
        1
176
     1
 90
        1
176
     1
 40
1.0
176
     1
 90
        8
176
     1
 62
     7
176
     1
 40
1.0
176
     1
 90
        1
176
     1
 90
        6
176
     1
 90
        2
176
     1
 62
     7
176
     1
 90
        5
176
     1
 90
        0
176
     1
 90
        0
176
     1
290
     0
176
     1
 90
        1
176
     1
 40
0.0
176
     1
 90
        0
176
     1
290
     0
176
     1
290
     1
176
     1
290
     1
176
     1
290
     0
176
     1
290
     0
176
     1
290
     0
176
     1
290
     0
176
     1
290
     0
176
     1
290
     0
176
     1
 90
       50
176
     1
 40
0.0
176
     1
 40
1.0
176
     1
 90
        0
176
     1
 62
    18
420
        0
176
     1
 90
       50
176
     1
 90
        3
176
     1
 62
     5
420
      255
176
     1
290
     0
176
     1
 90
       50
176
     1
 90
       50
176
     1
 90
       50
176
     1
290
     0
176
     1
 90
       50
176
     1
 62
   256
176
     0
 40
1.0
176
     0
 90
        2
176
     1
  1
strokes_ogs.tif
176
     1
290
     0
176
     1
 40
1.0
176
     1
 40
1.0
176
     1
  0
VISUALSTYLE
  5
423
102
{ACAD_REACTORS
330
417
102
}
330
417
100
AcDbVisualStyle
  2
Brighten
 70
    12
177
     3
291
     1
 70
    58
 90
        2
176
     1
 90
        2
176
     1
 90
        0
176
     1
 90
        0
176
     1
 40
0.6
176
     1
 40
30.0
176
     1
 62
     7
420
 16777215
176
     1
 90
        1
176
     1
 90
        4
176
     1
 62
     7
176
     1
 62
   257
176
     1
 90
        1
176
     1
 90
        1
176
     1
 40
1.0
176
     1
 90
        8
176
     1
 62
     7
176
     1
 40
1.0
176
     1
 90
        1
176
     1
 90
        6
176
     1
 90
        2
176
     1
 62
     7
176
     1
 90
        5
176
     1
 90
        0
176
     1
 90
        0
176
     1
290
     0
176
     1
 90
        1
176
     1
 40
50.0
176
     1
 90
        0
176
     1
290
     0
176
     1
290
     1
176
     1
290
     1
176
     1
290
     0
176
     1
290
     0
176
     1
290
     0
176
     1
290
     0
176
     1
290
     0
176
     1
290
     0
176
     1
 90
       50
176
     1
 40
0.0
176
     1
 40
1.0
176
     1
 90
        0
176
     1
 62
    18
420
        0
176
     1
 90
       50
176
     1
 90
        3
176
     1
 62
     5
420
      255
176
     1
290
     0
176
     1
 90
       50
176
     1
 90
       50
176
     1
 90
       50
176
     1
290
     0
176
     1
 90
       50
176
     1
 62
   256
176
     0
 40
1.0
176
     0
 90
        2
176
     1
  1
strokes_ogs.tif
176
     1
290
     0
176
     1
 40
1.0
176
     1
 40
1.0
176
     1
  0
VISUALSTYLE
  5
427
102
{ACAD_REACTORS
330
417
102
}
330
417
100
AcDbVisualStyle
  2
ColorChange
 70
    16
177
     3
291
     1
 70
    58
 90
        2
176
     1
 90
        2
176
     1
 90
        3
176
     1
 90
        0
176
     1
 40
0.6
176
     1
 40
30.0
176
     1
 62
     8
420
  8421504
176
     1
 90
        1
176
     1
 90
        4
176
     1
 62
     7
176
     1
 62
   257
176
     1
 90
        1
176
     1
 90
        1
176
     1
 40
1.0
176
     1
 90
        8
176
     1
 62
     8
420
  8421504
176
     1
 40
1.0
176
     1
 90
        1
176
     1
 90
        6
176
     1
 90
        2
176
     1
 62
     7
176
     1
 90
        5
176
     1
 90
        0
176
     1
 90
        0
176
     1
290
     0
176
     1
 90
        1
176
     1
 40
0.0
176
     1
 90
        0
176
     1
290
     0
176
     1
290
     1
176
     1
290
     1
176
     1
290
     0
176
     1
290
     0
176
     1
290
     0
176
     1
290
     0
176
     1
290
     0
176
     1
290
     0
176
     1
 90
       50
176
     1
 40
0.0
176
     1
 40
1.0
176
     1
 90
        0
176
     1
 62
    18
420
        0
176
     1
 90
       50
176
     1
 90
        3
176
     1
 62
     5
420
      255
176
     1
290
     0
176
     1
 90
       50
176
     1
 90
       50
176
     1
 90
       50
176
     1
290
     0
176
     1
 90
       50
176
     1
 62
   256
176
     0
 40
1.0
176
     0
 90
        2
176
     1
  1
strokes_ogs.tif
176
     1
290
     0
176
     1
 40
1.0
176
     1
 40
1.0
176
     1
  0
VISUALSTYLE
  5
421
102
{ACAD_REACTORS
330
417
102
}
330
417
100
AcDbVisualStyle
  2
Conceptual
 70
     9
177
     3
291
     0
 70
    58
 90
        3
176
     1
 90
        2
176
     1
 90
        0
176
     1
 90
        0
176
     1
 40
0.6
176
     1
 40
30.0
176
     1
 62
     7
420
 16777215
176
     1
 90
        2
176
     1
 90
        2
176
     1
 62
     7
176
     1
 62
   257
176
     1
 90
        1
176
     1
 90
        1
176
     1
 40
179.0
176
     1
 90
        8
176
     1
 62
     7
176
     1
 40
1.0
176
     1
 90
        1
176
     1
 90
        6
176
     1
 90
        2
176
     1
 62
     7
176
     1
 90
        3
176
     1
 90
        0
176
     1
 90
        0
176
     1
290
     0
176
     1
 90
        1
176
     1
 40
0.0
176
     1
 90
        0
176
     1
290
     0
176
     1
290
     1
176
     1
290
     1
176
     1
290
     0
176
     1
290
     0
176
     1
290
     0
176
     1
290
     0
176
     1
290
     0
176
     1
290
     0
176
     1
 90
       50
176
     1
 40
0.0
176
     1
 40
1.0
176
     1
 90
        0
176
     1
 62
    18
420
        0
176
     1
 90
       50
176
     1
 90
        3
176
     1
 62
     5
420
      255
176
     1
290
     0
176
     1
 90
       50
176
     1
 90
       50
176
     1
 90
       50
176
     1
290
     0
176
     1
 90
       50
176
     1
 62
   256
176
     0
 40
1.0
176
     0
 90
        2
176
     1
  1
strokes_ogs.tif
176
     1
290
     0
176
     1
 40
1.0
176
     1
 40
1.0
176
     1
  0
VISUALSTYLE
  5
422
102
{ACAD_REACTORS
330
417
102
}
330
417
100
AcDbVisualStyle
  2
Dim
 70
    11
177
     3
291
     1
 70
    58
 90
        2
176
     1
 90
        2
176
     1
 90
        0
176
     1
 90
        0
176
     1
 40
0.6
176
     1
 40
30.0
176
     1
 62
     7
420
 16777215
176
     1
 90
        1
176
     1
 90
        4
176
     1
 62
     7
176
     1
 62
   257
176
     1
 90
        1
176
     1
 90
        1
176
     1
 40
1.0
176
     1
 90
        8
176
     1
 62
     7
176
     1
 40
1.0
176
     1
 90
        1
176
     1
 90
        6
176
     1
 90
        2
176
     1
 62
     7
176
     1
 90
        5
176
     1
 90
        0
176
     1
 90
        0
176
     1
290
     0
176
     1
 90
        1
176
     1
 40
-50.0
176
     1
 90
        0
176
     1
290
     0
176
     1
290
     1
176
     1
290
     1
176
     1
290
     0
176
     1
290
     0
176
     1
290
     0
176
     1
290
     0
176
     1
290
     0
176
     1
290
     0
176
     1
 90
       50
176
     1
 40
0.0
176
     1
 40
1.0
176
     1
 90
        0
176
     1
 62
    18
420
        0
176
     1
 90
       50
176
     1
 90
        3
176
     1
 62
     5
420
      255
176
     1
290
     0
176
     1
 90
       50
176
     1
 90
       50
176
     1
 90
       50
176
     1
290
     0
176
     1
 90
       50
176
     1
 62
   256
176
     0
 40
1.0
176
     0
 90
        2
176
     1
  1
strokes_ogs.tif
176
     1
290
     0
176
     1
 40
1.0
176
     1
 40
1.0
176
     1
  0
VISUALSTYLE
  5
42A
102
{ACAD_REACTORS
330
417
102
}
330
417
100
AcDbVisualStyle
  2
EdgeColorOff
 70
    22
177
     3
291
     1
 70
    58
 90
        2
176
     0
 90
        2
176
     0
 90
        0
176
     0
 90
        0
176
     0
 40
0.6
176
     0
 40
30.0
176
     0
 62
     7
420
 16777215
176
     0
 90
        1
176
     0
 90
        4
176
     0
 62
     7
176
     0
 62
   257
176
     0
 90
        1
176
     0
 90
        1
176
     0
 40
1.0
176
     0
 90
        8
176
     2
 62
     7
176
     0
 40
1.0
176
     0
 90
        1
176
     0
 90
        6
176
     0
 90
        2
176
     0
 62
     7
176
     0
 90
        5
176
     0
 90
        0
176
     0
 90
        0
176
     0
290
     0
176
     0
 90
        1
176
     0
 40
0.0
176
     0
 90
        0
176
     0
290
     0
176
     0
290
     1
176
     0
290
     1
176
     0
290
     0
176
     0
290
     0
176
     0
290
     0
176
     0
290
     0
176
     0
290
     0
176
     0
290
     0
176
     0
 90
       50
176
     0
 40
0.0
176
     0
 40
1.0
176
     0
 90
        0
176
     0
 62
    18
420
        0
176
     0
 90
       50
176
     0
 90
        3
176
     0
 62
     5
420
      255
176
     0
290
     0
176
     0
 90
       50
176
     0
 90
       50
176
     0
 90
       50
176
     0
290
     0
176
     0
 90
       50
176
     0
 62
   256
176
     0
 40
1.0
176
     0
 90
        2
176
     0
  1
strokes_ogs.tif
176
     0
290
     0
176
     0
 40
1.0
176
     0
 40
1.0
176
     0
  0
VISUALSTYLE
  5
426
102
{ACAD_REACTORS
330
417
102
}
330
417
100
AcDbVisualStyle
  2
Facepattern
 70
    15
177
     3
291
     1
 70
    58
 90
        2
176
     1
 90
        2
176
     1
 90
        0
176
     1
 90
        0
176
     1
 40
0.6
176
     1
 40
30.0
176
     1
 62
     7
420
 16777215
176
     1
 90
        1
176
     1
 90
        4
176
     1
 62
     7
176
     1
 62
   257
176
     1
 90
        1
176
     1
 90
        1
176
     1
 40
1.0
176
     1
 90
        8
176
     1
 62
     7
176
     1
 40
1.0
176
     1
 90
        1
176
     1
 90
        6
176
     1
 90
        2
176
     1
 62
     7
176
     1
 90
        5
176
     1
 90
        0
176
     1
 90
        0
176
     1
290
     0
176
     1
 90
        1
176
     1
 40
0.0
176
     1
 90
        0
176
     1
290
     0
176
     1
290
     1
176
     1
290
     1
176
     1
290
     0
176
     1
290
     0
176
     1
290
     0
176
     1
290
     0
176
     1
290
     0
176
     1
290
     0
176
     1
 90
       50
176
     1
 40
0.0
176
     1
 40
1.0
176
     1
 90
        0
176
     1
 62
    18
420
        0
176
     1
 90
       50
176
     1
 90
        3
176
     1
 62
     5
420
      255
176
     1
290
     0
176
     1
 90
       50
176
     1
 90
       50
176
     1
 90
       50
176
     1
290
     0
176
     1
 90
       50
176
     1
 62
   256
176
     0
 40
1.0
176
     0
 90
        2
176
     1
  1
strokes_ogs.tif
176
     1
290
     0
176
     1
 40
1.0
176
     1
 40
1.0
176
     1
  0
VISUALSTYLE
  5
418
102
{ACAD_REACTORS
330
417
102
}
330
417
100
AcDbVisualStyle
  2
Flat
 70
     0
177
     3
291
     1
 70
    58
 90
        2
176
     1
 90
        1
176
     1
 90
        1
176
     1
 90
        2
176
     1
 40
0.6
176
     1
 40
30.0
176
     1
 62
     7
420
 16777215
176
     1
 90
        0
176
     1
 90
        0
176
     1
 62
     7
176
     1
 62
   257
176
     1
 90
        1
176
     1
 90
        1
176
     1
 40
1.0
176
     1
 90
        8
176
     1
 62
     7
176
     1
 40
1.0
176
     1
 90
        1
176
     1
 90
        6
176
     1
 90
        2
176
     1
 62
     7
176
     1
 90
        5
176
     1
 90
        0
176
     1
 90
        0
176
     1
290
     0
176
     1
 90
       13
176
     1
 40
0.0
176
     1
 90
        0
176
     1
290
     0
176
     1
290
     1
176
     1
290
     1
176
     1
290
     0
176
     1
290
     0
176
     1
290
     0
176
     1
290
     0
176
     1
290
     0
176
     1
290
     0
176
     1
 90
       50
176
     1
 40
0.0
176
     1
 40
1.0
176
     1
 90
        0
176
     1
 62
    18
420
        0
176
     1
 90
       50
176
     1
 90
        3
176
     1
 62
     5
420
      255
176
     1
290
     0
176
     1
 90
       50
176
     1
 90
       50
176
     1
 90
       50
176
     1
290
     0
176
     1
 90
       50
176
     1
 62
   256
176
     0
 40
1.0
176
     0
 90
        2
176
     1
  1
strokes_ogs.tif
176
     1
290
     0
176
     1
 40
1.0
176
     1
 40
1.0
176
     1
  0
VISUALSTYLE
  5
419
102
{ACAD_REACTORS
330
417
102
}
330
417
100
AcDbVisualStyle
  2
FlatWithEdges
 70
     1
177
     3
291
     1
 70
    58
 90
        2
176
     1
 90
        1
176
     1
 90
        1
176
     1
 90
        2
176
     1
 40
0.6
176
     1
 40
30.0
176
     1
 62
     7
420
 16777215
176
     1
 90
        1
176
     1
 90
        0
176
     1
 62
     7
176
     1
 62
   257
176
     1
 90
        1
176
     1
 90
        1
176
     1
 40
1.0
176
     1
 90
        0
176
     1
 62
   257
176
     1
 40
1.0
176
     1
 90
        1
176
     1
 90
        6
176
     1
 90
        2
176
     1
 62
     7
176
     1
 90
        5
176
     1
 90
        0
176
     1
 90
        0
176
     1
290
     0
176
     1
 90
       13
176
     1
 40
0.0
176
     1
 90
        0
176
     1
290
     0
176
     1
290
     1
176
     1
290
     1
176
     1
290
     0
176
     1
290
     0
176
     1
290
     0
176
     1
290
     0
176
     1
290
     0
176
     1
290
     0
176
     1
 90
       50
176
     1
 40
0.0
176
     1
 40
1.0
176
     1
 90
        0
176
     1
 62
    18
420
        0
176
     1
 90
       50
176
     1
 90
        3
176
     1
 62
     5
420
      255
176
     1
290
     0
176
     1
 90
       50
176
     1
 90
       50
176
     1
 90
       50
176
     1
290
     0
176
     1
 90
       50
176
     1
 62
   256
176
     0
 40
1.0
176
     0
 90
        2
176
     1
  1
strokes_ogs.tif
176
     1
290
     0
176
     1
 40
1.0
176
     1
 40
1.0
176
     1
  0
VISUALSTYLE
  5
41A
102
{ACAD_REACTORS
330
417
102
}
330
417
100
AcDbVisualStyle
  2
Gouraud
 70
     2
177
     3
291
     1
 70
    58
 90
        2
176
     1
 90
        2
176
     1
 90
        1
176
     1
 90
        2
176
     1
 40
0.6
176
     1
 40
30.0
176
     1
 62
     7
420
 16777215
176
     1
 90
        0
176
     1
 90
        0
176
     1
 62
     7
176
     1
 62
   257
176
     1
 90
        1
176
     1
 90
        1
176
     1
 40
1.0
176
     1
 90
        0
176
     1
 62
     7
176
     1
 40
1.0
176
     1
 90
        1
176
     1
 90
        6
176
     1
 90
        2
176
     1
 62
     7
176
     1
 90
        5
176
     1
 90
        0
176
     1
 90
        0
176
     1
290
     0
176
     1
 90
       13
176
     1
 40
0.0
176
     1
 90
        0
176
     1
290
     0
176
     1
290
     1
176
     1
290
     1
176
     1
290
     0
176
     1
290
     0
176
     1
290
     0
176
     1
290
     0
176
     1
290
     0
176
     1
290
     0
176
     1
 90
       50
176
     1
 40
0.0
176
     1
 40
1.0
176
     1
 90
        0
176
     1
 62
    18
420
        0
176
     1
 90
       50
176
     1
 90
        3
176
     1
 62
     5
420
      255
176
     1
290
     0
176
     1
 90
       50
176
     1
 90
       50
176
     1
 90
       50
176
     1
290
     0
176
     1
 90
       50
176
     1
 62
   256
176
     0
 40
1.0
176
     0
 90
        2
176
     1
  1
strokes_ogs.tif
176
     1
290
     0
176
     1
 40
1.0
176
     1
 40
1.0
176
     1
  0
VISUALSTYLE
  5
41B
102
{ACAD_REACTORS
330
417
102
}
330
417
100
AcDbVisualStyle
  2
GouraudWithEdges
 70
     3
177
     3
291
     1
 70
    58
 90
        2
176
     1
 90
        2
176
     1
 90
        1
176
     1
 90
        2
176
     1
 40
0.6
176
     1
 40
30.0
176
     1
 62
     7
420
 16777215
176
     1
 90
        1
176
     1
 90
        0
176
     1
 62
     7
176
     1
 62
   257
176
     1
 90
        1
176
     1
 90
        1
176
     1
 40
1.0
176
     1
 90
        0
176
     1
 62
   257
176
     1
 40
1.0
176
     1
 90
        1
176
     1
 90
        6
176
     1
 90
        2
176
     1
 62
     7
176
     1
 90
        5
176
     1
 90
        0
176
     1
 90
        0
176
     1
290
     0
176
     1
 90
       13
176
     1
 40
0.0
176
     1
 90
        0
176
     1
290
     0
176
     1
290
     1
176
     1
290
     1
176
     1
290
     0
176
     1
290
     0
176
     1
290
     0
176
     1
290
     0
176
     1
290
     0
176
     1
290
     0
176
     1
 90
       50
176
     1
 40
0.0
176
     1
 40
1.0
176
     1
 90
        0
176
     1
 62
    18
420
        0
176
     1
 90
       50
176
     1
 90
        3
176
     1
 62
     5
420
      255
176
     1
290
     0
176
     1
 90
       50
176
     1
 90
       50
176
     1
 90
       50
176
     1
290
     0
176
     1
 90
       50
176
     1
 62
   256
176
     0
 40
1.0
176
     0
 90
        2
176
     1
  1
strokes_ogs.tif
176
     1
290
     0
176
     1
 40
1.0
176
     1
 40
1.0
176
     1
  0
VISUALSTYLE
  5
41E
102
{ACAD_REACTORS
330
417
102
}
330
417
100
AcDbVisualStyle
  2
Hidden
 70
     6
177
     3
291
     0
 70
    58
 90
        1
176
     1
 90
        2
176
     1
 90
        2
176
     1
 90
        0
176
     1
 40
0.6
176
     1
 40
30.0
176
     1
 62
     7
420
 16777215
176
     1
 90
        2
176
     1
 90
        2
176
     1
 62
     7
176
     1
 62
   257
176
     1
 90
        2
176
     1
 90
        1
176
     1
 40
40.0
176
     1
 90
        0
176
     1
 62
   257
176
     1
 40
1.0
176
     1
 90
        1
176
     1
 90
        6
176
     1
 90
        2
176
     1
 62
     7
176
     1
 90
        3
176
     1
 90
        0
176
     1
 90
        0
176
     1
290
     0
176
     1
 90
        1
176
     1
 40
0.0
176
     1
 90
        0
176
     1
290
     0
176
     1
290
     1
176
     1
290
     1
176
     1
290
     0
176
     1
290
     0
176
     1
290
     0
176
     1
290
     0
176
     1
290
     0
176
     1
290
     0
176
     1
 90
       50
176
     1
 40
0.0
176
     1
 40
1.0
176
     1
 90
        0
176
     1
 62
    18
420
        0
176
     1
 90
       50
176
     1
 90
        3
176
     1
 62
     5
420
      255
176
     1
290
     0
176
     1
 90
       50
176
     1
 90
       50
176
     1
 90
       50
176
     1
290
     0
176
     1
 90
       50
176
     1
 62
   256
176
     0
 40
1.0
176
     0
 90
        2
176
     1
  1
strokes_ogs.tif
176
     1
290
     0
176
     1
 40
1.0
176
     1
 40
1.0
176
     1
  0
VISUALSTYLE
  5
428
102
{ACAD_REACTORS
330
417
102
}
330
417
100
AcDbVisualStyle
  2
JitterOff
 70
    20
177
     3
291
     1
 70
    58
 90
        2
176
     0
 90
        2
176
     0
 90
        0
176
     0
 90
        0
176
     0
 40
0.6
176
     0
 40
30.0
176
     0
 62
     7
420
 16777215
176
     0
 90
        1
176
     0
 90
        4
176
     0
 62
     7
176
     0
 62
   257
176
     0
 90
        1
176
     0
 90
        1
176
     0
 40
1.0
176
     0
 90
       10
176
     2
 62
     7
176
     0
 40
1.0
176
     0
 90
        1
176
     0
 90
        6
176
     0
 90
        2
176
     0
 62
     7
176
     0
 90
        5
176
     0
 90
        0
176
     0
 90
        0
176
     0
290
     0
176
     0
 90
        1
176
     0
 40
0.0
176
     0
 90
        0
176
     0
290
     0
176
     0
290
     1
176
     0
290
     1
176
     0
290
     0
176
     0
290
     0
176
     0
290
     0
176
     0
290
     0
176
     0
290
     0
176
     0
290
     0
176
     0
 90
       50
176
     0
 40
0.0
176
     0
 40
1.0
176
     0
 90
        0
176
     0
 62
    18
420
        0
176
     0
 90
       50
176
     0
 90
        3
176
     0
 62
     5
420
      255
176
     0
290
     0
176
     0
 90
       50
176
     0
 90
       50
176
     0
 90
       50
176
     0
290
     0
176
     0
 90
       50
176
     0
 62
   256
176
     0
 40
1.0
176
     0
 90
        2
176
     0
  1
strokes_ogs.tif
176
     0
290
     0
176
     0
 40
1.0
176
     0
 40
1.0
176
     0
  0
VISUALSTYLE
  5
425
102
{ACAD_REACTORS
330
417
102
}
330
417
100
AcDbVisualStyle
  2
Linepattern
 70
    14
177
     3
291
     1
 70
    58
 90
        2
176
     1
 90
        2
176
     1
 90
        0
176
     1
 90
        0
176
     1
 40
0.6
176
     1
 40
30.0
176
     1
 62
     7
420
 16777215
176
     1
 90
        1
176
     1
 90
        4
176
     1
 62
     7
176
     1
 62
   257
176
     1
 90
        7
176
     1
 90
        7
176
     1
 40
1.0
176
     1
 90
        8
176
     1
 62
     7
176
     1
 40
1.0
176
     1
 90
        1
176
     1
 90
        6
176
     1
 90
        2
176
     1
 62
     7
176
     1
 90
        5
176
     1
 90
        0
176
     1
 90
        0
176
     1
290
     0
176
     1
 90
        1
176
     1
 40
0.0
176
     1
 90
        0
176
     1
290
     0
176
     1
290
     1
176
     1
290
     1
176
     1
290
     0
176
     1
290
     0
176
     1
290
     0
176
     1
290
     0
176
     1
290
     0
176
     1
290
     0
176
     1
 90
       50
176
     1
 40
0.0
176
     1
 40
1.0
176
     1
 90
        0
176
     1
 62
    18
420
        0
176
     1
 90
       50
176
     1
 90
        3
176
     1
 62
     5
420
      255
176
     1
290
     0
176
     1
 90
       50
176
     1
 90
       50
176
     1
 90
       50
176
     1
290
     0
176
     1
 90
       50
176
     1
 62
   256
176
     0
 40
1.0
176
     0
 90
        2
176
     1
  1
strokes_ogs.tif
176
     1
290
     0
176
     1
 40
1.0
176
     1
 40
1.0
176
     1
  0
VISUALSTYLE
  5
429
102
{ACAD_REACTORS
330
417
102
}
330
417
100
AcDbVisualStyle
  2
OverhangOff
 70
    21
177
     3
291
     1
 70
    58
 90
        2
176
     0
 90
        2
176
     0
 90
        0
176
     0
 90
        0
176
     0
 40
0.6
176
     0
 40
30.0
176
     0
 62
     7
420
 16777215
176
     0
 90
        1
176
     0
 90
        4
176
     0
 62
     7
176
     0
 62
   257
176
     0
 90
        1
176
     0
 90
        1
176
     0
 40
1.0
176
     0
 90
        9
176
     2
 62
     7
176
     0
 40
1.0
176
     0
 90
        1
176
     0
 90
        6
176
     0
 90
        2
176
     0
 62
     7
176
     0
 90
        5
176
     0
 90
        0
176
     0
 90
        0
176
     0
290
     0
176
     0
 90
        1
176
     0
 40
0.0
176
     0
 90
        0
176
     0
290
     0
176
     0
290
     1
176
     0
290
     1
176
     0
290
     0
176
     0
290
     0
176
     0
290
     0
176
     0
290
     0
176
     0
290
     0
176
     0
290
     0
176
     0
 90
       50
176
     0
 40
0.0
176
     0
 40
1.0
176
     0
 90
        0
176
     0
 62
    18
420
        0
176
     0
 90
       50
176
     0
 90
        3
176
     0
 62
     5
420
      255
176
     0
290
     0
176
     0
 90
       50
176
     0
 90
       50
176
     0
 90
       50
176
     0
290
     0
176
     0
 90
       50
176
     0
 62
   256
176
     0
 40
1.0
176
     0
 90
        2
176
     0
  1
strokes_ogs.tif
176
     0
290
     0
176
     0
 40
1.0
176
     0
 40
1.0
176
     0
  0
VISUALSTYLE
  5
420
102
{ACAD_REACTORS
330
417
102
}
330
417
100
AcDbVisualStyle
  2
Realistic
 70
     8
177
     3
291
     0
 70
    58
 90
        2
176
     1
 90
        3
176
     1
 90
        0
176
     1
 90
        2
176
     1
 40
0.6
176
     1
 40
30.0
176
     1
 62
     7
420
 16777215
176
     1
 90
        0
176
     1
 90
        0
176
     1
 62
     7
176
     1
 62
   257
176
     1
 90
        1
176
     1
 90
        1
176
     1
 40
1.0
176
     1
 90
        8
176
     1
 62
   257
176
     1
 40
1.0
176
     1
 90
        1
176
     1
 90
        6
176
     1
 90
        2
176
     1
 62
     7
176
     1
 90
        3
176
     1
 90
        0
176
     1
 90
        0
176
     1
290
     0
176
     1
 90
       13
176
     1
 40
0.0
176
     1
 90
        0
176
     1
290
     0
176
     1
290
     1
176
     1
290
     1
176
     1
290
     0
176
     1
290
     0
176
     1
290
     0
176
     1
290
     0
176
     1
290
     0
176
     1
290
     0
176
     1
 90
       50
176
     1
 40
0.0
176
     1
 40
1.0
176
     1
 90
        0
176
     1
 62
    18
420
        0
176
     1
 90
       50
176
     1
 90
        3
176
     1
 62
     5
420
      255
176
     1
290
     0
176
     1
 90
       50
176
     1
 90
       50
176
     1
 90
       50
176
     1
290
     0
176
     1
 90
       50
176
     1
 62
   256
176
     0
 40
1.0
176
     0
 90
        2
176
     1
  1
strokes_ogs.tif
176
     1
290
     0
176
     1
 40
1.0
176
     1
 40
1.0
176
     1
  0
VISUALSTYLE
  5
42F
102
{ACAD_REACTORS
330
417
102
}
330
417
100
AcDbVisualStyle
  2
Shaded
 70
    27
177
     3
291
     0
 70
    58
 90
        2
176
     1
 90
        2
176
     1
 90
        1
176
     1
 90
        2
176
     1
 40
0.6
176
     1
 40
30.0
176
     1
 62
     7
420
 16777215
176
     1
 90
        0
176
     1
 90
        4
176
     1
 62
     7
176
     1
 62
   257
176
     1
 90
        1
176
     1
 90
        1
176
     1
 40
1.0
176
     1
 90
        8
176
     1
 62
   257
176
     1
 40
1.0
176
     1
 90
        1
176
     1
 90
        6
176
     1
 90
        2
176
     1
 62
     8
420
  7895160
176
     1
 90
        3
176
     1
 90
        0
176
     1
 90
        0
176
     1
290
     0
176
     1
 90
        5
176
     1
 40
0.0
176
     1
 90
        0
176
     1
290
     0
176
     1
290
     1
176
     1
290
     1
176
     1
290
     0
176
     1
290
     0
176
     1
290
     0
176
     1
290
     0
176
     1
290
     0
176
     1
290
     0
176
     1
 90
       50
176
     1
 40
0.0
176
     1
 40
1.0
176
     1
 90
        0
176
     1
 62
    18
420
        0
176
     1
 90
       50
176
     1
 90
        3
176
     1
 62
     5
420
      255
176
     1
290
     0
176
     1
 90
       50
176
     1
 90
       50
176
     1
 90
       50
176
     1
290
     0
176
     1
 90
       50
176
     1
 62
   256
176
     0
 40
1.0
176
     0
 90
        2
176
     1
  1
strokes_ogs.tif
176
     1
290
     0
176
     1
 40
1.0
176
     1
 40
1.0
176
     1
  0
VISUALSTYLE
  5
42E
102
{ACAD_REACTORS
330
417
102
}
330
417
100
AcDbVisualStyle
  2
Shaded with edges
 70
    26
177
     3
291
     0
 70
    58
 90
        2
176
     1
 90
        2
176
     1
 90
        1
176
     1
 90
        2
176
     1
 40
0.6
176
     1
 40
30.0
176
     1
 62
     7
420
 16777215
176
     1
 90
        1
176
     1
 90
       10
176
     1
 62
     7
176
     1
 62
   257
176
     1
 90
        2
176
     1
 90
        1
176
     1
 40
1.0
176
     1
 90
        8
176
     1
 62
   257
176
     1
 40
1.0
176
     1
 90
        1
176
     1
 90
        6
176
     1
 90
        2
176
     1
 62
     7
176
     1
 90
        3
176
     1
 90
        0
176
     1
 90
        0
176
     1
290
     0
176
     1
 90
        5
176
     1
 40
0.0
176
     1
 90
        0
176
     1
290
     0
176
     1
290
     1
176
     1
290
     1
176
     1
290
     0
176
     1
290
     0
176
     1
290
     0
176
     1
290
     0
176
     1
290
     0
176
     1
290
     0
176
     1
 90
       50
176
     1
 40
0.0
176
     1
 40
1.0
176
     1
 90
        0
176
     1
 62
    18
420
        0
176
     1
 90
       50
176
     1
 90
        3
176
     1
 62
     5
420
      255
176
     1
290
     0
176
     1
 90
       50
176
     1
 90
       50
176
     1
 90
       50
176
     1
290
     0
176
     1
 90
       50
176
     1
 62
   256
176
     0
 40
1.0
176
     0
 90
        2
176
     1
  1
strokes_ogs.tif
176
     1
290
     0
176
     1
 40
1.0
176
     1
 40
1.0
176
     1
  0
VISUALSTYLE
  5
42B
102
{ACAD_REACTORS
330
417
102
}
330
417
100
AcDbVisualStyle
  2
Shades of Gray
 70
    23
177
     3
291
     0
 70
    58
 90
        2
176
     1
 90
        2
176
     1
 90
        3
176
     1
 90
        0
176
     1
 40
0.6
176
     1
 40
30.0
176
     1
 62
     7
420
 16777215
176
     1
 90
        2
176
     1
 90
        2
176
     1
 62
     7
176
     1
 62
     7
176
     1
 90
        1
176
     1
 90
        1
176
     1
 40
40.0
176
     1
 90
        8
176
     1
 62
     7
176
     1
 40
1.0
176
     1
 90
        1
176
     1
 90
        6
176
     1
 90
        2
176
     1
 62
     7
176
     1
 90
        3
176
     1
 90
        0
176
     1
 90
        0
176
     1
290
     0
176
     1
 90
        1
176
     1
 40
0.0
176
     1
 90
        0
176
     1
290
     0
176
     1
290
     1
176
     1
290
     1
176
     1
290
     0
176
     1
290
     0
176
     1
290
     0
176
     1
290
     0
176
     1
290
     0
176
     1
290
     0
176
     1
 90
       50
176
     1
 40
0.0
176
     1
 40
1.0
176
     1
 90
        0
176
     1
 62
    18
420
        0
176
     1
 90
       50
176
     1
 90
        3
176
     1
 62
     5
420
      255
176
     1
290
     0
176
     1
 90
       50
176
     1
 90
       50
176
     1
 90
       50
176
     1
290
     0
176
     1
 90
       50
176
     1
 62
   256
176
     0
 40
1.0
176
     0
 90
        2
176
     1
  1
strokes_ogs.tif
176
     1
290
     0
176
     1
 40
1.0
176
     1
 40
1.0
176
     1
  0
VISUALSTYLE
  5
42C
102
{ACAD_REACTORS
330
417
102
}
330
417
100
AcDbVisualStyle
  2
Sketchy
 70
    24
177
     3
291
     0
 70
    58
 90
        1
176
     1
 90
        2
176
     1
 90
        2
176
     1
 90
        0
176
     1
 40
0.6
176
     1
 40
30.0
176
     1
 62
     7
420
 16777215
176
     1
 90
        2
176
     1
 90
        2
176
     1
 62
     7
176
     1
 62
     7
176
     1
 90
        1
176
     1
 90
        1
176
     1
 40
40.0
176
     1
 90
       11
176
     1
 62
     7
176
     1
 40
1.0
176
     1
 90
        1
176
     1
 90
        6
176
     1
 90
        2
176
     1
 62
     7
176
     1
 90
        6
176
     1
 90
        0
176
     1
 90
        0
176
     1
290
     0
176
     1
 90
        1
176
     1
 40
0.0
176
     1
 90
        0
176
     1
290
     0
176
     1
290
     1
176
     1
290
     1
176
     1
290
     0
176
     1
290
     0
176
     1
290
     0
176
     1
290
     0
176
     1
290
     0
176
     1
290
     0
176
     1
 90
       50
176
     1
 40
0.0
176
     1
 40
1.0
176
     1
 90
        0
176
     1
 62
    18
420
        0
176
     1
 90
       50
176
     1
 90
        3
176
     1
 62
     5
420
      255
176
     1
290
     0
176
     1
 90
       50
176
     1
 90
       50
176
     1
 90
       50
176
     1
290
     0
176
     1
 90
       50
176
     1
 62
   256
176
     0
 40
1.0
176
     0
 90
        2
176
     1
  1
strokes_ogs.tif
176
     1
290
     0
176
     1
 40
1.0
176
     1
 40
1.0
176
     1
  0
VISUALSTYLE
  5
424
102
{ACAD_REACTORS
330
417
102
}
330
417
100
AcDbVisualStyle
  2
Thicken
 70
    13
177
     3
291
     1
 70
    58
 90
        2
176
     1
 90
        2
176
     1
 90
        0
176
     1
 90
        0
176
     1
 40
0.6
176
     1
 40
30.0
176
     1
 62
     7
420
 16777215
176
     1
 90
        1
176
     1
 90
        4
176
     1
 62
     7
176
     1
 62
   257
176
     1
 90
        1
176
     1
 90
        1
176
     1
 40
1.0
176
     1
 90
       12
176
     1
 62
     7
176
     1
 40
1.0
176
     1
 90
        1
176
     1
 90
        6
176
     1
 90
        2
176
     1
 62
     7
176
     1
 90
        5
176
     1
 90
        0
176
     1
 90
        0
176
     1
290
     0
176
     1
 90
        1
176
     1
 40
0.0
176
     1
 90
        0
176
     1
290
     0
176
     1
290
     1
176
     1
290
     1
176
     1
290
     0
176
     1
290
     0
176
     1
290
     0
176
     1
290
     0
176
     1
290
     0
176
     1
290
     0
176
     1
 90
       50
176
     1
 40
0.0
176
     1
 40
1.0
176
     1
 90
        0
176
     1
 62
    18
420
        0
176
     1
 90
       50
176
     1
 90
        3
176
     1
 62
     5
420
      255
176
     1
290
     0
176
     1
 90
       50
176
     1
 90
       50
176
     1
 90
       50
176
     1
290
     0
176
     1
 90
       50
176
     1
 62
   256
176
     0
 40
1.0
176
     0
 90
        2
176
     1
  1
strokes_ogs.tif
176
     1
290
     0
176
     1
 40
1.0
176
     1
 40
1.0
176
     1
  0
VISUALSTYLE
  5
41D
102
{ACAD_REACTORS
330
417
102
}
330
417
100
AcDbVisualStyle
  2
Wireframe
 70
     5
177
     3
291
     0
 70
    58
 90
        0
176
     1
 90
        2
176
     1
 90
        0
176
     1
 90
        0
176
     1
 40
0.6
176
     1
 40
30.0
176
     1
 62
     7
420
 16777215
176
     1
 90
        1
176
     1
 90
        4
176
     1
 62
     7
176
     1
 62
   257
176
     1
 90
        1
176
     1
 90
        1
176
     1
 40
1.0
176
     1
 90
        0
176
     1
 62
   257
176
     1
 40
1.0
176
     1
 90
        1
176
     1
 90
        6
176
     1
 90
        2
176
     1
 62
     7
176
     1
 90
        3
176
     1
 90
        0
176
     1
 90
        0
176
     1
290
     0
176
     1
 90
        1
176
     1
 40
0.0
176
     1
 90
        0
176
     1
290
     0
176
     1
290
     1
176
     1
290
     1
176
     1
290
     0
176
     1
290
     0
176
     1
290
     0
176
     1
290
     0
176
     1
290
     0
176
     1
290
     0
176
     1
 90
       50
176
     1
 40
0.0
176
     1
 40
1.0
176
     1
 90
        0
176
     1
 62
    18
420
        0
176
     1
 90
       50
176
     1
 90
        3
176
     1
 62
     5
420
      255
176
     1
290
     0
176
     1
 90
       50
176
     1
 90
       50
176
     1
 90
       50
176
     1
290
     0
176
     1
 90
       50
176
     1
 62
   256
176
     0
 40
1.0
176
     0
 90
        2
176
     1
  1
strokes_ogs.tif
176
     1
290
     0
176
     1
 40
1.0
176
     1
 40
1.0
176
     1
  0
VISUALSTYLE
  5
42D
102
{ACAD_REACTORS
330
417
102
}
330
417
100
AcDbVisualStyle
  2
X-Ray
 70
    25
177
     3
291
     0
 70
    58
 90
        2
176
     1
 90
        2
176
     1
 90
        1
176
     1
 90
        1
176
     1
 40
0.5
176
     1
 40
30.0
176
     1
 62
     7
420
 16777215
176
     1
 90
        1
176
     1
 90
        0
176
     1
 62
     7
176
     1
 62
   257
176
     1
 90
        1
176
     1
 90
        1
176
     1
 40
1.0
176
     1
 90
        8
176
     1
 62
     7
176
     1
 40
1.0
176
     1
 90
        1
176
     1
 90
        6
176
     1
 90
        2
176
     1
 62
     7
176
     1
 90
        3
176
     1
 90
        0
176
     1
 90
        0
176
     1
290
     0
176
     1
 90
       13
176
     1
 40
0.0
176
     1
 90
        0
176
     1
290
     0
176
     1
290
     1
176
     1
290
     1
176
     1
290
     0
176
     1
290
     0
176
     1
290
     0
176
     1
290
     0
176
     1
290
     0
176
     1
290
     0
176
     1
 90
       50
176
     1
 40
0.0
176
     1
 40
1.0
176
     1
 90
        0
176
     1
 62
    18
420
        0
176
     1
 90
       50
176
     1
 90
        3
176
     1
 62
     5
420
      255
176
     1
290
     0
176
     1
 90
       50
176
     1
 90
       50
176
     1
 90
       50
176
     1
290
     0
176
     1
 90
       50
176
     1
 62
   256
176
     0
 40
1.0
176
     0
 90
        2
176
     1
  1
strokes_ogs.tif
176
     1
290
     0
176
     1
 40
1.0
176
     1
 40
1.0
176
     1
  0
DICTIONARYVAR
  5
43C
102
{ACAD_REACTORS
330
43B
102
}
330
43B
100
DictionaryVariables
280
     0
  1
1:1
  0
DICTIONARYVAR
  5
441
102
{ACAD_REACTORS
330
43B
102
}
330
43B
100
DictionaryVariables
280
     0
  1
Standard
  0
DICTIONARYVAR
  5
440
102
{ACAD_REACTORS
330
43B
102
}
330
43B
100
DictionaryVariables
280
     0
  1
Standard
  0
DICTIONARYVAR
  5
442
102
{ACAD_REACTORS
330
43B
102
}
330
43B
100
DictionaryVariables
280
     0
  1
0
  0
DICTIONARY
  5
43D
330
435
100
AcDbDictionary
280
     1
281
     1
  3
ACAD_ROUNDTRIP_2008_TABLESTYLE_CELLSTYLEMAP
360
43E
  0
CELLSTYLEMAP
  5
43E
102
{ACAD_REACTORS
330
43D
102
}
330
43D
100
AcDbCellStyleMap
 90
        3
300
CELLSTYLE
  1
TABLEFORMAT_BEGIN
 90
        5
170
     1
 91
        0
 92
    32768
 62
   257
 93
        1
300
CONTENTFORMAT
  1
CONTENTFORMAT_BEGIN
 90
        0
 91
        0
 92
        4
 93
        0
300

 40
0.0
140
1.0
 94
        5
 62
     0
340
17
144
6.0
309
CONTENTFORMAT_END
171
     1
301
MARGIN
  1
CELLMARGIN_BEGIN
 40
1.5
 40
1.5
 40
1.5
 40
1.5
 40
1.5
 40
1.5
309
CELLMARGIN_END
 94
        6
 95
        1
302
GRIDFORMAT
  1
GRIDFORMAT_BEGIN
 90
        0
 91
        1
 62
     0
 92
       -2
340
11
 93
        0
 40
0.045
309
GRIDFORMAT_END
 95
        2
302
GRIDFORMAT
  1
GRIDFORMAT_BEGIN
 90
        0
 91
        1
 62
     0
 92
       -2
340
11
 93
        0
 40
0.045
309
GRIDFORMAT_END
 95
        4
302
GRIDFORMAT
  1
GRIDFORMAT_BEGIN
 90
        0
 91
        1
 62
     0
 92
       -2
340
11
 93
        0
 40
0.045
309
GRIDFORMAT_END
 95
        8
302
GRIDFORMAT
  1
GRIDFORMAT_BEGIN
 90
        0
 91
        1
 62
     0
 92
       -2
340
11
 93
        0
 40
0.045
309
GRIDFORMAT_END
 95
       16
302
GRIDFORMAT
  1
GRIDFORMAT_BEGIN
 90
        0
 91
        1
 62
     0
 92
       -2
340
11
 93
        0
 40
0.045
309
GRIDFORMAT_END
 95
       32
302
GRIDFORMAT
  1
GRIDFORMAT_BEGIN
 90
        0
 91
        1
 62
     0
 92
       -2
340
11
 93
        0
 40
0.045
309
GRIDFORMAT_END
309
TABLEFORMAT_END
  1
CELLSTYLE_BEGIN
 90
        1
 91
        1
300
_TITLE
309
CELLSTYLE_END
300
CELLSTYLE
  1
TABLEFORMAT_BEGIN
 90
        5
170
     1
 91
        0
 92
        0
 62
   257
 93
        1
300
CONTENTFORMAT
  1
CONTENTFORMAT_BEGIN
 90
        0
 91
        0
 92
        4
 93
        0
300

 40
0.0
140
1.0
 94
        5
 62
     0
340
17
144
4.5
309
CONTENTFORMAT_END
171
     1
301
MARGIN
  1
CELLMARGIN_BEGIN
 40
1.5
 40
1.5
 40
1.5
 40
1.5
 40
1.5
 40
1.5
309
CELLMARGIN_END
 94
        6
 95
        1
302
GRIDFORMAT
  1
GRIDFORMAT_BEGIN
 90
        0
 91
        1
 62
     0
 92
       -2
340
11
 93
        0
 40
0.045
309
GRIDFORMAT_END
 95
        2
302
GRIDFORMAT
  1
GRIDFORMAT_BEGIN
 90
        0
 91
        1
 62
     0
 92
       -2
340
11
 93
        0
 40
0.045
309
GRIDFORMAT_END
 95
        4
302
GRIDFORMAT
  1
GRIDFORMAT_BEGIN
 90
        0
 91
        1
 62
     0
 92
       -2
340
11
 93
        0
 40
0.045
309
GRIDFORMAT_END
 95
        8
302
GRIDFORMAT
  1
GRIDFORMAT_BEGIN
 90
        0
 91
        1
 62
     0
 92
       -2
340
11
 93
        0
 40
0.045
309
GRIDFORMAT_END
 95
       16
302
GRIDFORMAT
  1
GRIDFORMAT_BEGIN
 90
        0
 91
        1
 62
     0
 92
       -2
340
11
 93
        0
 40
0.045
309
GRIDFORMAT_END
 95
       32
302
GRIDFORMAT
  1
GRIDFORMAT_BEGIN
 90
        0
 91
        1
 62
     0
 92
       -2
340
11
 93
        0
 40
0.045
309
GRIDFORMAT_END
309
TABLEFORMAT_END
  1
CELLSTYLE_BEGIN
 90
        2
 91
        1
300
_HEADER
309
CELLSTYLE_END
300
CELLSTYLE
  1
TABLEFORMAT_BEGIN
 90
        5
170
     1
 91
        0
 92
        0
 62
   257
 93
        1
300
CONTENTFORMAT
  1
CONTENTFORMAT_BEGIN
 90
        0
 91
        0
 92
        4
 93
        0
300

 40
0.0
140
1.0
 94
        2
 62
     0
340
17
144
4.5
309
CONTENTFORMAT_END
171
     1
301
MARGIN
  1
CELLMARGIN_BEGIN
 40
1.5
 40
1.5
 40
1.5
 40
1.5
 40
1.5
 40
1.5
309
CELLMARGIN_END
 94
        6
 95
        1
302
GRIDFORMAT
  1
GRIDFORMAT_BEGIN
 90
        0
 91
        1
 62
     0
 92
       -2
340
11
 93
        0
 40
0.045
309
GRIDFORMAT_END
 95
        2
302
GRIDFORMAT
  1
GRIDFORMAT_BEGIN
 90
        0
 91
        1
 62
     0
 92
       -2
340
11
 93
        0
 40
0.045
309
GRIDFORMAT_END
 95
        4
302
GRIDFORMAT
  1
GRIDFORMAT_BEGIN
 90
        0
 91
        1
 62
     0
 92
       -2
340
11
 93
        0
 40
0.045
309
GRIDFORMAT_END
 95
        8
302
GRIDFORMAT
  1
GRIDFORMAT_BEGIN
 90
        0
 91
        1
 62
     0
 92
       -2
340
11
 93
        0
 40
0.045
309
GRIDFORMAT_END
 95
       16
302
GRIDFORMAT
  1
GRIDFORMAT_BEGIN
 90
        0
 91
        1
 62
     0
 92
       -2
340
11
 93
        0
 40
0.045
309
GRIDFORMAT_END
 95
       32
302
GRIDFORMAT
  1
GRIDFORMAT_BEGIN
 90
        0
 91
        1
 62
     0
 92
       -2
340
11
 93
        0
 40
0.045
309
GRIDFORMAT_END
309
TABLEFORMAT_END
  1
CELLSTYLE_BEGIN
 90
        3
 91
        2
300
_DATA
309
CELLSTYLE_END
  0
ENDSEC
  0
EOF
